Guitar Tabs, Chords and Lyrics
Server problems seems to be fixed. Chordie has been experiencing problems with songs disappearing. These issues now seems to be fixed, but still verifying the fix. If you find anything strange, please email admin@chordie.com.


Shine  Trey Anastasio

 
 -----------------------------------------------------------------------------

Shine - Trey Anastasio
 
 -----------------------------------------------------------------------------

Tabbed by: Pauly S
Email: Pscarinci@aol.com
 
 -------------------------------------------------------------------------------

Shine
 
 -------------------------------------------------------------------------------

Opening
[A] [Em7] [D] [A]  
 
 E---------------------------------------------------------------------|
 B----5-----8----7----5------------------------------------------------|
 G----6-----7----7----6------------------------------------------------|
 D----7-----9----7----7------------------------------------------------|
 A---------------------------------------------------------------------|
 E---------------------------------------------------------------------|

Lead into chorus
[Em]  
 
 E----0-----------------------------------------------------------------|
 B----8-----------------------------------------------------------------|
 G----9-----------------------------------------------------------------|
 D----9-----------------------------------------------------------------|
 A----7-----------------------------------------------------------------|
 E----0-----------------------------------------------------------------|

chorus is the same chords as the opening, but the chord inversions are
moved furthur up the neck (i tihnk)
Bridge
C Dsus2 (repeat 3x) E
 
 E----0--------0-----------------0---------------------------------------|
 B----1--------3-----------------0---------------------------------------|
 G----0--------2-----------------1---------------------------------------|
 D----2--------0-----------------2---------------------------------------|
 A----3--------------------------2---------------------------------------|
 E-------------------------------0---------------------------------------|
 -----------------------------------------------------------------------------

Tuesday
 
 -----------------------------------------------------------------------------

From Emil's Tablature
I was just jamming to the song and came up with most of the chords. Someone else
can touch it up and make it pretty. :) Intro/CHORUS: E-A-E-G VERSE: HANG ON TO
E, THEN A-D BRIDGE: E-C-D(HOLD FOR A LITTLE MORE THAN ONE MEASURE)-A
 
 ------------------------------------------------------------------------------

Invisible
 
 ------------------------------------------------------------------------------

This is just the basic chord rundown of the song. You experts can add in the solo
or fine tune it if you want
Intro: play around with this. This is my first time composing tab so fool around with it
[E]  
 
 E--9---9-----------7--------7----------9--|
 B--9---10p>9-------9s>10----9----------9--|
 G--9---9-----------7--------7----------9--| (x2)
 D--9---9-----------9--------9----------9--|
 A--7---7-----------7--------7----------7--|
 E-----------------------------------------|

Then C>G>D>A>E
Verse 1: (I kinda hammer the 5th string while playing the E to carry the chord)
[E]Last time....when you were w[A]aiting for me...
[E]I tried....to tell you a[A]ll we had was a
[C]Wrapped up scene like I k[G]new that it would
It [D]all seems thin but it [A]sure feels g[E]ood.
Cause it's the b[C]est I've seen when you f[G]all down good
[D]Sink in the water but you're w[A]alkin on w[E]ood.
Verse 2:
[E]This time....what are you wa[A]iting for is it
[E]Your time....to walk a[A]way because the
[C]Laws unseen l[G]evels all good
The [D]hurdles all down like [A]another time [E]would
Cause it's the [C]best I've seen when you [G]fall down should
[D]Sink in the water but you're [A]walkin on [E]wood.
Bridge:
[B]Last I've seen walkin on wood
[C]Downstream driftin like a longtime should
[G]But now we're invisible
So a[D]ll that's good
[B]Laws unseen levels all good
[C]Downstream driftin like a long time should
[G]But now we're invisible
So [D]all that's [E]good.
Verse 3: (this verse alone is soo meaningful and poignant)
[E]Next time....and I could [A]wait forever
[E]Old times....because I th[A]ought I'd never
[C]Wrap that scene like I [G]knew that I should
We a[D]ll seem thin but it [A]sure felt [E]good.
Cause it's the [C]best I've seen when you [G]fall down good
S[D]ink in the water but you're w[A]alkin on [E]wood.
[A]Walkin on w[E]ood.......
[E]Last time......walkin on wood.....n[D]ow we're invisible....and a[A]ll that's good.
 
 ------------------------------------------------------------------------------

Come As Melody - Trey Anastasio
 
 ------------------------------------------------------------------------------

[A]  
 
 E-----------0----------0-----------0---------0--------------0--------|
 B--------3----3----3-----3-----3----3----3------3--*-----3-----------|
 G----5----------4-----------3----------2--------------2--------------| repeat to the *
 D?--(0)--------(0)---------(0)--------(0)----------0-----------------|
 A--------------------------------------------------------------------|
 E--------------------------------------------------------------------|

They try to see what?s wrong with me they?ll never know
[B]  
 
 E-------2------3----------5-------------3--------------------------|
 B-------3------2----------3-------------3--------------------------|
 G-------2------2----------2-------------2--------------------------|
 D-------0------0----------0-------------0--------------------------|repeat
 A------------------------------------------------------------------|
 E------------------------------------------------------------------|

Come as melody
[C]  
 
 E---------2---2----------------------------------------|
 B---------3---3-------------------------------7\-------|
 G---------2---2---------p.o.-h.o.-------------7\-------|
 D---------0---0-----0---2/0-------------------7\-------|
 A-------------------------------0-2--3-4-5*---5\-------|
 E------------------------------------------------------|

Play repeats from (p.o.)
3rd time end on (*)
Repeat A B sections
[C]  
 
 E---------2---2------------------------------------------------------------------------3--|
 B---------3---3------------------------------7\---------------------------------1------3--|
 G---------2---2------------------------------7\-----after 3rd time play--0------0------0--|
 D---------0---0-----0---2/0------------------7\---------------------------------2------0--|
 A------------------------------0-2--3-4-5*---5\---------------------------------3------2--|
 E--------------------------------------------------------------------------------------3--|

Repeat B section x 4
Then the band breaks while Trey strums a Dmaj chord
Outro
Strum and sing your balls off. Ladies sing your bras off
 
 E---2-----3-----5--3--2----3----------------3------------------------------|
 B---3-----3-----3--3--3----3--------1-------0------------------------------|
 G---2-----2-----2--2--2----2--------0-------0------------------------------|
 D---0-----0-----0--0--0----0--------2-------0------------------------------|
 A-----------------------------------3-------2------------------------------|
 E-------------------------------------------3------------------------------|
 -------------------------------------------------------------------------------

Air Said To Me
 
 -------------------------------------------------------------------------------
 E---------------------------------------------------------------|
 G------2-2------2-2------3--3-3----------2-2-----2-2-----3--3-3-|
 B------2-2------2-2-----2---2-2----------2-2-----2-2----2---2-2-| etc.
 D------2-2------2-2---/5----4-0----------2-2-----2-2--/5----4-0-|
 A-4-h5-----4-h5------------------0-h4-h5-----4-h5---------------|
 E---------------------------------------------------------------|

In the verse, play this a couple of times when you resolve to the A.
 
 E------------|
 G---------2--|
 B---------2--|
 D---------2--|
 A-0-h4-h5----|
 E------------|

VERSE 1
[A]Currents on an [G]endless sea, [D]what I want to [A]carry me
[A]Up above this [G]silent scene, [D]what's unseen I will [A]rise and see
__________________________________________________________________
C-/D w/ palm muting
 
 E-----------------------------------|
 G-----------------------------------|
 B-5-/7--5-/7--5-/7--7-7-7-7-7-7-7-7-|
 D-5-/7--5-/7--5-/7--7-7-7-7-7-7-7-7-|
 A-3-/5--3-/5--3-/5--5-5-5-5-5-5-5-5-|
 E-----------------------------------|

[C-/D-/E] Third time like this (no muting)
 
 E-----------------------------------|
 G-----------------------------------|
 B-5-/7--5-/7--7-/9--9-9-9-9-9-9-9-9-|
 D-5-/7--5-/7--7-/9--9-9-9-9-9-9-9-9-|
 A-3-/5--3-/5--5-/7--7-7-7-7-7-7-7-7-|
 E-----------------------------------|

_____________________________________________________________________
PRE-CHORUS
[C-/D]Severed and free, [C-/D]believe what you want to believe,
[C-/D-/E]step into the
CHORUS
E-0-|
G-0-|
B-1-|
D-2-|
A-2-|
E-0-|
[E]Air . . . [D]said to me
[A]Turn out to be what you'd [E]never be
"E Lick"
 
 E-0-------------|
 G-0-------------|
 B-1-1-h2-2p-1---|
 D-2-----------2-|
 A-2-------------|
 E-0-------------|

[E]Air . . . [D]said to me, [A]turn out to be what you'd
[C]never be
"C Lick"
 
 E------------|
 G----1-------|
 B----0-------|
 D--2---------|
 A-3-----2----|
 E-x--------3-|

VERSE 2
[A]Lights out on the [G]final scene, [D]turning in the [A]summer breeze
[A]While crooked fingers [G]point at me,
In [D]lifts and dives I will [A]rise and see
[C-/D]Severed and free, [C-/D]leave what you want to leave,
[C-/D-/E]Escape into the
E D A E (E lick)
Air . . . said to me, turn out to be what you'd never be
E D A C (C lick)
Air . . . said to me, turn out to be what you'd never be
E D A E (E lick)
Air . . . said to me, turn out to be what you'd never be
E D A C (C lick)
Air . . . said to me, turn out to be what you'd never be
Bridge
C-G D-A (C lick 2 frets higher), F-C (3 more frets higher)
_______________________________________________________
2nd guitar part during this bridge
"3-5-8 lick" - index finger climbs from frets 3-5-8
Ex. the one on 3
 
 E-3----3-------|
 G-3-h5--5p-3---|
 B------------4-|
 D--------------|
 A--------------|
 E--------------|

_________________________________________________________
INTERLUDE
[G] [C#dim]  
 
 E-------------|
 G-------------|

B-12-12-12-12-|
D-12-11-12-11-|
A-10-10-10-10-|
 
 E-------------|

Sweet sparks, open and surrounding
Blue waves, open and surrounding
[D] [A]  
 
 E-------------|
 G-------------|

B-14-14-14-14-|
D-12-11-12-11-|
A-12-12-12-12-|
 
 E-------------|

Blue waves, open and surrounding
Sweet sparks, open and surrounding
Blue waves
Then to lead back into the chorus, do the 3-5-8 lick, but 5-8-11, so
the chords are D-A, F-C, Ab-Eb, E
Then back the CHORUS
Turn and taste the air . . . said to me
 
 -------------------------------------------------------------------------------

Wherever You Find It
 
 -------------------------------------------------------------------------------

Piano Intro:
[Dm] [F] [Bb]  
 
 e------1---6--------|
 B--3---3---3--------|
 G--2----------------|
 D-------------------|
 A-------------------|
 E-------------------|

Verse Chords:
[Dm] [F] [Bb] [C] [G]  
[Dm] [F] Another [Bb]letter to re[C]mind [G]me
Walk in circles on the phone
While this distant thought surrounds me
I let it settle on the ground
[C]Whenever you f[Dm]ind it, look all [Bb]around, you?re never [C]alone
But if you rewind it, love on a line, I will follow you home
What said in tunnels to remind me
Spread out in liquid on the ground
And drawn in circles all around me
Until its time to set it down
Wherever you find it, look all around, you?re never alone
Until you rewind it, love on a line, I will follow you home
Whenever you find it, look all around, you?re never alone
Solo (Don't know what chords this is over, verse or chorus probably?)
So if your hinge is on a line
What falls away and rolls along
And when our breathing is divided
We weather battles on our own
And so if you find it, look all around, you?re never alone
Until you rewind it, love on a line, I will follow you home
Wherever you find it?
But if you rewind?
End solo(?)
 
 -------------------------------------------------------------------------------

Sweet Dreams Melinda
 
 -------------------------------------------------------------------------------

Intro
 
 E--x---------------------------------|
 G--5-10-8-7-3---5-3-2--3-2-3--5-3-5--|
 B--6-9--7-7-2---2-2-2--2-2-2--2-2-6--| repeat from
 D--7-11-9-7-4---4-4-2--2-2-4--4-4-7--| here
 A--x------9---------0--0-0-----------|
 E--x---------------------------------|

_______________________________________________________________
Voicings for the chords during the verse:
A G D F#m B E (w/ ornament)
 
 E---| E----| E---| E-9--| E-7-| E-------------|
 G-5-| G-8--| G-7-| G-10-| G-7-| G-9--9-h10-9--|
 B-6-| B-7--| B-7-| B-11-| B-8-| B-9--9-----9--|
 D-7-| D-9--| D-7-| D-11-| D-9-| D-9--9-----9--|
 A-7-| A-10-| A-9-| A-9--| A-9-| A-11-11----11-|
 E---| E----| E---| E-9--| E-7-| E-------------|

[A]Roses float across the [G]water[D]
A[A]nd the ice is slowly melting next to y[G]ou[D]
I[A]n our hideout down by the b[G]oathouse, [D] l[A]onely days are t[G]hrough[D]
[F#m]'Cause when you walked into that [B]room
I've never seen two eyes so b[E]lue
CHORUS
[A]Sweet dreams [G]Melinda, [D] [A]the summer days we [G]knew[D]
A G D A G D (repeat intro)
Laughing down by the water, sweet dreams to you
VERSE 2
Went from Charlotte all the way to Savannah
Laughing, your feet up on the dash
Stumbled through the yellow lights of Toledo
And the rain was falling fast
Flew from Boston down to Tulsa, Oklahoma
In a dream above the clouds, In a dream above the clouds
CHORUS
Sweet dreams Melinda, when summer days are through
I'll think of you on those long lonely nights Sweet dreams to you
INTERLUDE
[Bm] And [Bm/A]time after [Bm/Ab]time,
I go [F#m]back [F#m/E] to that [F#m/Eb]morning
[Bm] And the [Bm/A]water's so [G]fine, [D]sweet dreams Melinda
____________________________________________________
Voicings for the chords during the interlude:
[Bm] [Bm/A] [Bm/Ab] [F#m] [F#m/E] [F#m/Eb] [G] [D]  
 
 E--2-----2------2------2------2---------------3---2-|
 G--3-----3------3------2------2-------7-------3---3-|
 B--4-----4------4------2------2-------6-------0---2-|
 D--4-----4------4------4------4-------7-------0---0-|
 A--2-----0------x------4------4-------6-------2-----|
 E--2-----x------4------2------0---------------3-----|

SOLO: A major pentatonic over verse chords
CHORUS
Sweet dreams Melinda,
The summer days we knew, laughing down by the water
Sweet dreams to you
 
 -------------------------------------------------------------------------------

Love Is Freedom
 
 -------------------------------------------------------------------------------

TUNING/CHORDS:
[A] [D/A] [G6/A] [G/A] [Gm/A]  
 
 D|-0---0---0----0---0---|
 B|-5--(0)-(5)---3---3---|
 G|-6---2---4----4---3---|
 D|-7---4---5----5---5---|
 A|-0---0---0----0---0---|
 D|(0)-(0)-(0)--(0)-(0)--|
 ------------------------------------------------------------------

INTRO:
|[1]A [+] [2] [+] [3]D/[+]A [4] [+] |[1]G6[+]/A[2] [+] [3]D/[+]A [4] [+] |[1]A [+] [2] [+] [3]D/[+]A [4] [+] |[1]G6[+]/A[2] [+] [3]D/[+]A [4] [+] |
|[1]A [+] [2] [+] [3]D/[+]A [4] [+] |[1]G6[+]/A[2] [+] [3]D/[+]A [4] [+] |[1]A [+] [2] [+] [3]D/[+]A [4] [+] |[1]G6[+]/A[2] [+] [3]D/[+]A [4] [+] |
 
 ------------------------------------------------------------------

VERSE:
|[1]A [+] [2] [+] [3]D/[+]A [4] [+] |[1]G6[+]/A[2] [+] [3] [+] [4] [+]D/A|[1] [+] [2] [+] |
|[1]A [+] [2] [+] [3]D/[+]A [4] [+] |[1]G6[+]/A[2] [+] [3] [+] [4] [+]D/A|[1] [+] [2] [+] |
[1] [+] [2] [+] [3] [+] [4] [+] [1] [+] [2] [+] [3] [+] [4] [+] [1] [+] [2] [+] [3] [+] [4] [+]  
 
 D|----2-------0---|----------------|----------------|
 B|--3---3---2---2-|----0-----------|----------------|
 G|4-------2-------|--4---4-----2---|----------------|
 D|----------------|5-------0-4---0-|3---------3-2-0-|
 A|----------------|----------------|----------------|
 D|----------------|----------------|----------------|

|[1]A [+] [2] [+] [3]D/[+]A [4] [+] |[1]G6[+]/A[2] [+] [3]D/[+]A [4] [+] |
 
 ------------------------------------------------------------------

VERSE 2:
|[1]A [+] [2] [+] [3]D/[+]A [4] [+] |[1]G6[+]/A[2] [+] [3] [+] [4] [+]D/A|[1] [+] [2] [+] |
|[1]A [+] [2] [+] [3]D/[+]A [4] [+] |[1]G6[+]/A[2] [+] [3] [+] [4] [+]D/A|[1] [+] [2] [+] |
[1] [+] [2] [+] [3] [+] [4] [+] [1] [+] [2] [+] [3] [+] [4] [+] [1] [+] [2] [+] [3] [+] [4] [+]  
 
 D|----2-------0---|----------------|----------------|
 B|--3---3---2---2-|----0-----------|----------------|
 G|4-------2-------|--4---4-----2---|----------------|
 D|----------------|5-------0-4---0-|3---------3-2-0-|
 A|----------------|----------------|----------------|
 D|----------------|----------------|----------------|

|[1]A [+] [2] [+] [3]D/[+]A [4] [+] |[1]G6[+]/A[2] [+] [3] [+] [4] [+] |
 
 ------------------------------------------------------------------

CHORUS:
|[1]A [+] [2] [+] [3] [+] [4] [+] |[1]G/[+]A [2] [+] [3] [+] [4] [+] |[1]Gm[+]/A[2] [+] [3] [+] [4] [+] |
[1] [+] [2] [+] [3] [+] [4] [+]  
 
 D|0---------------|
 B|3---------------|
 G|4---------------|
 D|5-2-2-2-4-4-4-4-|
 A|0---------------|
 D|----------------|

|[1]A [+] [2] [+] [3] [+] [4] [+] |[1]G/[+]A [2] [+] [3] [+] [4] [+] |[1]Gm[+]/A[2] [+] [3] [+] [4] [+] |
[1] [+] [2] [+] [3] [+] [4] [+]  
 
 D|0---------------|
 B|3---------------|
 G|4---------------|
 D|5-2-2-2-4-4-4-4-|
 A|0---------------|
 D|----------------|
 ------------------------------------------------------------------

VERSE 3:
|[1]A [+] [2] [+] [3]D/[+]A [4] [+] |[1]G6[+]/A[2] [+] [3] [+] [4] [+]D/A|[1] [+] [2] [+] |
|[1]A [+] [2] [+] [3]D/[+]A [4] [+] |[1]G6[+]/A[2] [+] [3] [+] [4] [+]D/A|[1] [+] [2] [+] |
[1] [+] [2] [+] [3] [+] [4] [+] [1] [+] [2] [+] [3] [+] [4] [+] [1] [+] [2] [+] [3] [+] [4] [+]  
 
 D|----2-------0---|----------------|----------------|
 B|--3---3---2---2-|----0-----------|----------------|
 G|4-------2-------|--4---4-----2---|----------------|
 D|----------------|5-------0-4---0-|3---------3-2-0-|
 A|----------------|----------------|----------------|
 D|----------------|----------------|----------------|

|[1]A [+] [2] [+] [3]D/[+]A [4] [+] |[1]G6[+]/A[2] [+] [3] [+] [4] [+] |
 
 ------------------------------------------------------------------

CHORUS:
|[1]A [+] [2] [+] [3] [+] [4] [+] |[1]G/[+]A [2] [+] [3] [+] [4] [+] |[1]Gm[+]/A[2] [+] [3] [+] [4] [+] |
[1] [+] [2] [+] [3] [+] [4] [+]  
 
 D|0---------------|
 B|3---------------|
 G|4---------------|
 D|5-2-2-2-4-4-4-4-|
 A|0---------------|
 D|----------------|

|[1]A [+] [2] [+] [3] [+] [4] [+] |[1]G/[+]A [2] [+] [3] [+] [4] [+] |[1]Gm[+]/A[2] [+] [3] [+] [4] [+] |
[1] [+] [2] [+] [3] [+] [4] [+]  
 
 D|0---------------|
 B|3---------------|
 G|4---------------|
 D|5-2-2-2-4-4-4-4-|
 A|0---------------|
 D|----------------|
 ------------------------------------------------------------------

PIANO SOLO OVER CHORUS:
|[1]A [+] [2] [+] [3] [+] [4] [+] |[1]G/[+]A [2] [+] [3] [+] [4] [+] |[1]Gm[+]/A[2] [+] [3] [+] [4] [+] |
[1] [+] [2] [+] [3] [+] [4] [+]  
 
 D|0---------------|
 B|3---------------|
 G|4---------------|
 D|5-2-2-2-4-4-4-4-|
 A|0---------------|
 D|----------------|

|[1]A [+] [2] [+] [3] [+] [4] [+] |[1]G/[+]A [2] [+] [3] [+] [4] [+] |[1]Gm[+]/A[2] [+] [3] [+] [4] [+] |
[1] [+] [2] [+] [3] [+] [4] [+]  
 
 D|0---------------|
 B|3---------------|
 G|4---------------|
 D|5-2-2-2-4-4-4-4-|
 A|0---------------|
 D|----------------|
 ------------------------------------------------------------------

CHORUS:
|[1]A [+] [2] [+] [3] [+] [4] [+] |[1]G/[+]A [2] [+] [3] [+] [4] [+] |[1]Gm[+]/A[2] [+] [3] [+] [4] [+] |
[1] [+] [2] [+] [3] [+] [4] [+]  
 
 D|0---------------|
 B|3---------------|
 G|4---------------|
 D|5-2-2-2-4-4-4-4-|
 A|0---------------|
 D|----------------|

|[1]A [+] [2] [+] [3] [+] [4] [+] |[1]G/[+]A [2] [+] [3] [+] [4] [+] |[1]Gm[+]/A[2] [+] [3] [+] [4] [+] |
[1] [+] [2] [+] [3] [+] [4] [+] [1] [+] [2] [+] [3] [+] [4] [+]  
 
 D|0---------------|----------------|
 B|3---------------|----------------|
 G|4---------------|----------------|
 D|5-2-2-2-4-4-4-4-|5-5-5-5-4-4-4-4-|
 A|0---------------|----------------|
 D|----------------|----------------|
 -------------------------------------------------------------------------------

Sleep Again
 
 -------------------------------------------------------------------------------

Intro
[G] [A] [E] [A] [G] [G] [G] [A] [E] [A] [G] [G] [G]  
 
 e------------------------------------------------7----7----|
 B------------5--10--8---8-------------5--10--8----8----8---|
 G----4->-6--------------7-----4->-6----------------7----7--|
 D----5->-7---6--11--9---9-----5->-7---6--11--9-------------|
 A----------------------------------------------------------|
 E----------------------------------------------------------|

The underlying chords are all right, but combination of strings or
the picking pattern may be a little different.
Verse:
[A]Slow [G]slow, my [D]brother you will s[A]leep again
Verse ending:
 
 e------------------|
 B--5------------5--|
 G--6--------6-7----|
 D--7---------------|
 A------------------|
 E------------------|

..sleep again
Long long, when it passes you will breathe again
A G Bm G > ? (there is a slide here from G to something, but I can't figure it out)
Snow falls, oh...and it passes
Time time, in good time you will be again
Hold on, when it passes you will live again
Long long, on and on, care free and downstream(?)
You will sleep again x3 (Sing over intro)
Chorus:
[A] All [D]you'll be,[Dm] and all that's g[A]one
D A A7 (not certain about this A7)
Is leading you on and on
[A]On and [Dm]on
Chorus ending:
[Dm]  
 
 e--5-5h7-7-5-5-----|
 B--6-6-6-6-6-6-----|
 G--7-7-7-7-7-7-----|
 D--5-5-5-5-5-5-----| x2
 A--5-5-5-5-5-5-----|
 E------------------|

You will sleep again
Repeat 1st verse
You will live again x3
Repeat Chorus x2
You will sleep again x2
Outro:
 
 e------------------------------5-5h7-7-5-5-|
 B--5-----5--5-----5--5------5--6-6-6-6-6-6-|
 G--6-6-7----6-6-7----6--6-7----7-7-7-7-7-7-| x3
 D--7--------6--------5---------5-5-5-5-5-5-|
 A------------------------------5-5-5-5-5-5-|
 E------------------------------------------|

End on A
 
 -------------------------------------------------------------------------------

Spin
 
 -------------------------------------------------------------------------------

INTRO: pluck out individual notes instead of strumming
Organ: E C E C E C Bb Ab E
Little riff on E
 
 E-----------------------------------------|
 B-9---9----9-9-----------------10------9~-|
 G-9---9----9-9---11^(13)-9-11~----11-9----|
 D-9---9-h11-------------------------------|
 A-11--------------------------------------|
 E-----------------------------------------|

VERSE 1
E C A>B
The days go by and I'm still alive
[E]Lost inside but I will arrive[C] [D]
CHORUS
[G]And I'm starting to [A]fall, can't escape from it [C]all
It's better to [G]go down easy
[G]When I'm stuck in this [A]spin, look at the shape that I'm [C]in
It's pulling me [F]down but I'm [D]enjoying the view
VERSE 2
E C A>B
So lift up now if you're all alone
[E]Better start now or you'll never know[C] [D]
CHORUS
[G]Time goes by in a [A]flash, If you're starting to [C]crash
It's better to [G]go down easy
[G]In a circular [A]dive, when I finally a[C]rrive
It's taking me [F]down but what [D]else can I do?
VERSE 3
[E]Time goes past still it's all the same
[C] (and I've been [A]with you [B]all these nights)
[E]In time when you change the game
[C] (and hold yours[D]elf up to the light)
[E]It's past and you're all alone [C] (But I will [A]be here '[B]till the end)
[E]And I'll lead you home [C] (If you can't [D]see it through my friend)
''
Return to opening progression, except it goes:
||: E C E C E C Eb Bb :|| 2nd ending: Bb Ab
CHORUS
[G]Now we're caught in this [A]slide, seems like one hell of a [C]ride
Taking me [G]down, so easy, When I finally [A]rise
And I open my [C]eyes, Looking [F]around, and I'm [D]enjoying the view.
 
 -------------------------------------------------------------------------------

Love That Breaks All Lines
 
 -------------------------------------------------------------------------------
 intro: A|--5--5--5--5---

[G]Now you left the [C]solid [G]wall [D]behind
[D]to lead the [G]balance of [D]below x2
Chorus:
[C]Love that [G]breaks all [D]lines x3
D-fills- hammer on/off D/G chord from the 7th fret
or Open D/Dsus4
Verse:
[D]Unseen, a [G]time to break your [Am]mind
[Am]To see the s[G]hadow of the s[D]igns
Watch the water fall alone
To see the center of the road
Untied, unwavered and unfree
Undone to love the same as me,
Unturned and taking it all alone,
[Am]Uns[G]een another chance
To [Bb]understand the m[F]ovements
In the c[C]orners of your m[G]ind,
To s[C]ee the [G]balance of [D]behind
And [D]walk the [G]center line [D]alone.
Then repeat chorus
then solo over verse
then back to "understand the movements"
then chorus
=============================================================================

Important: The song above is NOT stored on the Chordie server. The original song is hosted at www.guitartabs.cc. Chordie works as a search engine and provides on-the-fly formatting. Chordie does not index songs against artists'/composers' will. To remove this song please click here.

Text color:
Chord color:
Chord grids: 
Font size:    
Page size: 

A Am B Bb Bm Bm/A Bm/Ab C C#dim D Dm E Em Em7 F F#m F#m/E F#m/Eb G G6/A Gm/A
Rate #1 of 2 versions

Jango Player

Login - add to songbook

SHARE PAGE  




You need to log in to post comments