Guitar Tabs, Chords and Lyrics
Major upgrade!! After one year development the new version of Chordie is now online! Please give feedback.


Pull Harder on the Strings of Your Martyr   Trivium

 
 e||-----------------------------------------------------------------------||
 B||-----------------------------------------------------------------------||
 G||-----------------------------------------------------------------------||
 D||-7---------------7-8---------------8-8----------------8-7--------------||
 A||-5---------------5-5---------------5-6----------------6-7--------------||
 D||---0000000000000-----0000000000000-----55555555555555-----777777777777-||

 


 PM ............. ............. .............. ............


 


 Gtr.1


 

 
 e||-----------------|-----------------|-----------------|-----------------||
 B||-----------------|-----------------|-----------------|-----------------||
 G||-15-14-14-12-12--|-12--------------|-15-14-14-17-17--|-12-12\14--------||
 D||-x--x--x--x--x---|-x---------------|-x--x--x--x--x---|-x--x--x---------||
 A||-13-12-12-10-10--|-10--------------|-13-12-12-15-15--|-10-10\12--------||
 D||-----------------|-----------------|-----------------|-----------------||

 


 


 Gtr.2


 

 
 e||-----------------|-----------------|-----------------|-----------------||
 B||-----------------|-----------------|-----------------|-----------------||
 G||-----------------|-----------------|-----------------|-----------------||
 D||-----------------|-----------------|-----------------|-----------------||
 A||-0-0-0-0-0-0-0-0-|-0-0-0-0-0-0-0-0-|-6-6-6-6-6-6-6-6-|-7-7-7-7-7-7-7-7-||
 D||-0-0-0-0-0-0-0-0-|-0-0-0-0-0-0-0-0-|-5-5-5-5-5-5-5-5-|-7-7-7-7-7-7-7-7-||

 


 


 Verse


 Gtr.1 + 2


 

 
 e||-----------------------------------------------------------------------||
 B||-----------------------------------------------------------------------||
 G||-----------------------------------------------------------------------||
 D||-7---------------7-8---------------8-8----------------8-7--------------||
 A||-5---------------5-5---------------5-6----------------6-7--------------||
 D||---0000000000000-----0000000000000-----55555555555555-----777777777777-||

 


 PM ............. ............. .............. ............


 


 [---]  


 Pre Chorus


 Gtr.1


 

 
 e||--------------------------------------||
 B||---------10-10-10-10--------8-8-8-8-8-||
 G||---------x--x--x--x---------x-x-x-x-x-||
 D||-0-1-0---7--7--7--7--0-1-0--5-5-5-5-5-||x2
 A||-0-1-0---------------0-1-0------------||
 D||-0-1-0---------------0-1-0------------||

 


 


 Gtr.2


 

 
 e||-------------------------------------||
 B||-------------------------------------||
 G||-------------------------------------||
 D||-0-1-0---------------0-1-0-----------||
 A||-0-1-0---------------0-1-0-----------||
 D||-0-1-0---------------0-1-0-----------||

 


 


 Gtr.1


 

 
 e|----------------------------------------|
 B|----------10-10-10-10-----------8-8-8-8-|
 G|----------x--x--x--x------------x-x-x-x-|
 D|-7-8-8-8--7--7--7--7---7-8-8-8--5-5-5-5-|
 A|-7-8-8-8---------------7-8-8-8----------|
 D|-7-8-8-8---------------7-8-8-8----------|

 


 


 Gtr.2


 

 
 e|----------------------------------------|
 B|----------------------------------------|
 G|----------------------------------------|
 D|-7-8-8-8---------------7-8-8-8----------|
 A|-7-8-8-8---------------7-8-8-8----------|
 D|-7-8-8-8---------------7-8-8-8----------|

 


 


 Gtr.1


 

 
 e|-----------------------------------------------|
 B|----------10-10-10-10--------------13-13-13-13-|
 G|----------x--x--x--x---------------x--x--x--x--|
 D|-7-8-8-8--7--7--7--7---7-10-10-10--10-10-10-10-|
 A|-7-8-8-8---------------7-10-10-10--------------|
 D|-7-8-8-8---------------7-10-10-10--------------|

 


 


 Gtr.2


 

 
 e|-----------------------------------------------|
 B|-----------------------------------------------|
 G|-----------------------------------------------|
 D|-7-8-8-8---------------7-10-10-10--------------|
 A|-7-8-8-8---------------7-10-10-10--------------|
 D|-7-8-8-8---------------7-10-10-10--------------|

 


 


 [---]  


 Harmonisation


 Gtr.1


 

 
 e||-------------------------------------||
 B||-------------------------------------||
 G||-------10-10-10-10--------9-9-9-9-9--||
 D||-0-1-0-x--x--x--x---0-1-0-x-x-x-x-x--||x2
 A||-0-1-0-8--8--8--8---0-1-0-7-7-7-7-7--||
 D||-0-1-0--------------0-1-0------------||

 


 


 Gtr.2


 

 
 e||--------------------------------------||
 B||---------10-10-10-10--------8-8-8-8-8-||
 G||---------x--x--x--x---------x-x-x-x-x-||
 D||-0-1-0---7--7--7--7--0-1-0--5-5-5-5-5-||x2
 A||-0-1-0---------------0-1-0------------||
 D||-0-1-0---------------0-1-0------------||

 


 


 Gtr.1


 

 
 e|----------------------------------------|
 B|----------------------------------------|
 G|---------10-10-10-10---------9-9-9-9-9--|
 D|-7-8-8-8-x--x--x--x--7-8-8-8-x-x-x-x-x--|
 A|-7-8-8-8-8--8--8--8--7-8-8-8-7-7-7-7-7--|
 D|-7-8-8-8-------------7-8-8-8------------|

 


 


 Gtr.2


 

 
 e|----------------------------------------|
 B|----------10-10-10-10-----------8-8-8-8-|
 G|----------x--x--x--x------------x-x-x-x-|
 D|-7-8-8-8--7--7--7--7---7-8-8-8--5-5-5-5-|
 A|-7-8-8-8---------------7-8-8-8----------|
 D|-7-8-8-8---------------7-8-8-8----------|

 


 


 Gtr.1


 

 
 e|-----------------------------------------------|
 B|-----------------------------------------------|
 G|---------10-10-10-10------------12-12-12-12-12-|
 D|-7-8-8-8-x--x--x--x--7-10-10-10-x--x--x--x--x--|
 A|-7-8-8-8-8--8--8--8--7-10-10-10-10-10-10-10-10-|
 D|-7-8-8-8-------------7-10-10-10----------------|

 


 


 Gtr.2


 

 
 e|-----------------------------------------------|
 B|----------10-10-10-10--------------13-13-13-13-|
 G|----------x--x--x--x---------------x--x--x--x--|
 D|-7-8-8-8--7--7--7--7---7-10-10-10--10-10-10-10-|
 A|-7-8-8-8---------------7-10-10-10--------------|
 D|-7-8-8-8---------------7-10-10-10--------------|

 


 


 [---]  


 Chorus


 Gtr.1


 

 
 e|---------------|----------------------|-------------------------|-----------------|
 B|-------6-------|----------------------|-------------------------|-----------------|
 G|-------7-------|--------------------5-|-------------------------|-----------------|
 D|-0--0--7-------|-5----5-7-5---5-7-5---|-10-10-10-10-10-10-10-10-|-7-7-7-8-8-8-7-7-|
 A|-0--0--5--7----|---8--------8---------|-8--8--8--8--8--8--8--8--|-5-5-5-5-5-5-5-5-|
 D|-0--0-------8b-|----------------------|-8--8--8--8--8--8--8--8--|-5-5-5-5-5-5-5-5-|

 


 


 Gtr.2


 

 
 e|---------------|----------------------|-------------------------|-----------------|
 B|-------6-------|----------------------|-------------------------|-----------------|
 G|-------7-------|----------------------|-------------------------|-----------------|
 D|-0--0--7-------|-5----------------5-7-|-10-10-10-10-10-10-10-10-|-7-7-7-8-8-8-7-7-|
 A|-0--0--5--7----|---8--7-8-7-5-7-8-----|-8--8--8--8--8--8--8--8--|-5-5-5-5-5-5-5-5-|
 D|-0--0-------8b-|----------------------|-8--8--8--8--8--8--8--8--|-5-5-5-5-5-5-5-5-|

 


 


 [---]  


 Gtr.1


 

 
 e|---------------|----------------------|-----------------|--------------------------------------|
 B|-------6-------|----------------------|-----------------|-------------8-11---------------11-14-|
 G|-------7-------|--------------------5-|-----------------|---------6-9---------------9-12-------|
 D|-0--0--7-------|-5----5-7-5---5-7-5---|-----------------|-----5-8--------------8-11------------|
 A|-0--0--5--7----|---8--------8---------|-3-3-3-3-3-3-3-3-|-4-7-------------7-10-----------------|
 D|-0--0-------8b-|----------------------|-3-3-3-3-3-3-3-3-|--------------------------------------|

 


 PM . . . . . . . . . .


 


 Gtr.2


 

 
 e|---------------|----------------------|-----------------|-------------------------|
 B|-------6-------|----------------------|-----------------|-------------------------|
 G|-------7-------|----------------------|-----------------|-------------------------|
 D|-0--0--7-------|-5----------------5-7-|-3-3-3-3-3-3-3-3-|-3--3--3--3--3--3--3--3--|
 A|-0--0--5--7----|---8--7-8-7-5-7-8-----|-3-3-3-3-3-3-3-3-|-4--4--4--4--4--4--4--4--|
 D|-0--0-------8b-|----------------------|-3-3-3-3-3-3-3-3-|-3--3--3--3--3--3--3--3--|

 


 


 Repeat all of the above from the verse, playing the Chorus twice on the repeat.


 


 [---]  


 Breakdown section


 Gtr.1


 

 
 e|--------------------------------|---------------------------------|
 B|--------------------------------|---------------------------------|
 G|--------------------------------|---------------------------------|
 D|-----------------7-----5--------|---------------------------------|
 A|-----5-----8-----------------8*-|-----5-----8-----5p0h7p0h8p0h3p0-|
 D|-0-0---0-0---0-0---0-0---0-0----|-0-0---0-0---0-0-----------------|

 


 PM . . . . . . . . . . . . . . . .


 


 Gtr.2


 

 
 e|---------------------------------|---------------------------------|
 B|---------------------------------|---------------------------------|
 G|---------------------------------|-----------------10--12--14--9---|
 D|-0-------------------------------|-----------------x---x---x---x---|
 A|-0-------------------------------|-----------------8---10--12--7---|
 D|-0-------------------------------|---------------------------------|

 


 


 Gtr.1


 

 
 e|---------------------------------|---------------------------------|
 B|---------------------------------|---------------------------------|
 G|---------------------------------|---------------------------------|
 D|-----------3-----5-----3---------|-----------3-----2---------------|
 A|-1-1-4-1-1---1-1---1-1---1-1--4*-|-1-1-4-1-1---1-1-0---------------|
 D|---------------------------------|---------------------------------|

 


 


 Gtr.2


 

 
 e|---------------------------------|--------------------------------|
 B|---------------------------------|--------------------------------|
 G|---------------------------------|--------------------------------|
 D|-8-------------------------------|----------------7---------------|
 A|-8-------------------------------|----------------7---------------|
 D|-8-------------------------------|----------------7---------------|

 


 


 [---]  


 Gtr.1


 

 
 e|--------------------------------|---------------------------------|
 B|--------------------------------|---------------------------------|
 G|--------------------------------|---------------------------------|
 D|-----------------7-----5--------|---------------------------------|
 A|-----5-----8-----------------8*-|-----5-----8-----5p0h7p0h8p0h3p0-|
 D|-0-0---0-0---0-0---0-0---0-0----|-0-0---0-0---0-0-----------------|

 


 PM . . . . . . . . . . . . . . . .


 


 Gtr.2


 

 
 e|--------------------------------|----------------------------------|
 B|--------------------------------|----------------------------------|
 G|--------------------------------|----------------------------------|
 D|--------------------------------|----------------------------------|
 A|-0-0---0-0---0-0----------------|-----0------0-----0-0-0-0-0-0-0-0-|
 D|-0-0---0-0---0-0----------------|-----0------0-----0-0-0-0-0-0-0-0-|

 


 


 Gtr.1


 

 
 e|--------------------------------|----------------------------------|
 B|--------------------------------|----------------------------------|
 G|--------------------------------|----------------------------------|
 D|-----------3-----5-----3--------|-----------3----------------------|
 A|-1-1-4-1-1---1-1---1-1---1-1-4*-|-1-1-4-1-1---1-1-10p08p07p04p0----|
 D|--------------------------------|----------------------------------|

 


 


 Gtr.2


 

 
 e|--------------------------------|----------------------------------|
 B|--------------------------------|----------------------------------|
 G|--------------------------------|----------------------------------|
 D|--------------------------------|----------------------------------|
 A|-8-8---8-8---8-8----------------|-----8------8-----7-7-7-7-7-7-7-7-|
 D|-8-8---8-8---8-8----------------|-----8------8-----7-7-7-7-7-7-7-7-|

 


 


 Gtr.1


 

 
 e|--------------------------------|---------------------------------|
 B|--------------------------------|---------------------------------|
 G|--------------------------------|---------------------------------|
 D|-----------------7-----5--------|---------------------------------|
 A|-----5-----8-----------------8*-|-----5-----8-----5p0h7p0h8p0h3p0-|
 D|-0-0---0-0---0-0---0-0---0-0----|-0-0---0-0---0-0-----------------|

 


 PM . . . . . . . . . . . . . . . .


 


 Gtr.2


 

 
 e|--------------------------------|----------------------------------|
 B|--------------------------------|----------------------------------|
 G|--------------------------------|----------------------------------|
 D|--------------------------------|----------------------------------|
 A|-0-0---0-0---0-0----------------|-----0------0-----0-0-0-0-0-0-0-0-|
 D|-0-0---0-0---0-0----------------|-----0------0-----0-0-0-0-0-0-0-0-|

 


 


 Gtr.1


 

 
 e|--------------------------------|----------------------------------|
 B|--------------------------------|----------------------------------|
 G|--------------------------------|----------------------------------|
 D|-----------3-----5-----3--------|-----------3----------------------|
 A|-1-1-4-1-1---1-1---1-1---1-1-4*-|-1-1-4-1-1---1-1-10p08p07p04p0----|
 D|--------------------------------|----------------------------------|

 


 


 Gtr.2


 

 
 e|--------------------------------|----------------------------------|
 B|--------------------------------|----------------------------------|
 G|--------------------------------|----------------------------------|
 D|--------------------------------|----------------------------------|
 A|-8-8---8-8---8-8----------------|-----8------8-----7-7-7-7-7-7-7-7-|
 D|-8-8---8-8---8-8----------------|-----8------8-----7-7-7-7-7-7-7-7-|

 


 


 [---]  


 Gtr.1


 

 
 e|--------------------------------|---------------------------------|
 B|--------------------------------|---------------------------------|
 G|--------------------------------|---------------------------------|
 D|-----------------7-----5--------|---------------------------------|
 A|-----5-----8-----------------8*-|-----5-----8-----5p0h7p0h8p0h3p0-|
 D|-0-0---0-0---0-0---0-0---0-0----|-0-0---0-0---0-0-----------------|

 


 PM . . . . . . . . . . . . . . . .


 


 Gtr.2


 

 
 e|--------------------------------|-----------------------------------|
 B|--------------------------------|-----------------------------------|
 G|--------------------------------|-----------------------------------|
 D|-----------------7-----5--------|-----------------------------------|
 A|-----5-----8-----------------8*-|-----5-----8-----8p0h10p0h12p0h7p0-|
 D|-0-0---0-0---0-0---0-0---0-0----|-0-0---0-0---0-0-------------------|

 


 PM . . . . . . . . . . . . . . . .


 


 Gtr.1


 

 
 e|--------------------------------|----------------------------------|
 B|--------------------------------|----------------------------------|
 G|--------------------------------|----------------------------------|
 D|-----------3-----5-----3--------|-----------3----------------------|
 A|-1-1-4-1-1---1-1---1-1---1-1-4*-|-1-1-4-1-1---1-1-10p0h8p0h7p0h4p0-|
 D|--------------------------------|----------------------------------|

 


 


 Gtr.2


 

 
 e|--------------------------------|------------------------------------|
 B|--------------------------------|------------------------------------|
 G|--------------------------------|------------------------------------|
 D|-----------3-----5-----3--------|-----------3------------------------|
 A|-1-1-4-1-1---1-1---1-1---1-1-4*-|-1-1-4-1-1---1-1-13p0h12p0h10p0h7p0-|
 D|--------------------------------|------------------------------------|

 


 


 [---]  


 Gtr.1


 

 
 e|--------------------------------|---------------------------------|
 B|--------------------------------|---------------------------------|
 G|--------------------------------|---------------------------------|
 D|-----------------7-----5--------|---------------------------------|
 A|-----5-----8-----------------8*-|-----5-----8-----5p0h7p0h8p0h3p0-|
 D|-0-0---0-0---0-0---0-0---0-0----|-0-0---0-0---0-0-----------------|

 


 PM . . . . . . . . . . . . . . . .


 


 Gtr.2


 

 
 e|--------------------------------|-----------------------------------|
 B|--------------------------------|-----------------------------------|
 G|--------------------------------|-----------------------------------|
 D|-----------------7-----5--------|-----------------------------------|
 A|-----5-----8-----------------8*-|-----5-----8-----8p0h10p0h12p0h7p0-|
 D|-0-0---0-0---0-0---0-0---0-0----|-0-0---0-0---0-0-------------------|

 


 PM . . . . . . . . . . . . . . . .


 


 Gtr.1


 

 
 e|--------------------------------|----------------------------------|
 B|--------------------------------|----------------------------------|
 G|--------------------------------|----------------------------------|
 D|-----------3-----5-----3--------|-----------3----------------------|
 A|-1-1-4-1-1---1-1---1-1---1-1-4*-|-1-1-4-1-1---1-1-10p0h8p0h7p0h4p0-|
 D|--------------------------------|----------------------------------|

 


 


 Gtr.2


 

 
 e|--------------------------------|------------------------------------|
 B|--------------------------------|------------------------------------|
 G|--------------------------------|------------------------------------|
 D|-----------3-----5-----3--------|-----------3------------------------|
 A|-1-1-4-1-1---1-1---1-1---1-1-4*-|-1-1-4-1-1---1-1-13p0h12p0h10p0h7p0-|
 D|--------------------------------|------------------------------------|

 


 


 Solo


 HEAFY


 

 
 e|--------------------|--------------------------------------|
 B|--------------------|-----5-----5--6--5--6--8--6--5-----5--|
 G|--6b-------7~-------|--7-----7-----------------------7-----|
 D|--------------------|--------------------------------------|
 A|--------------------|--------------------------------------|
 D|--------------------|--------------------------------------|
 e|-----------------------|-----------------------|
 B|-----------------------|-----------------------|
 G|--6b-----6-7--------6b-|--6b-----6-7-----------|
 D|-------------8---------|-------------8----8----|
 A|-----------------------|-----------------------|
 D|-----------------------|-----------------------|
 e|-----------------------------------------|
 B|-----------------------------------------|
 G|----------------------9-10-9----9--------|
 D|-------7----7-10-7-10--------10---10-7---|
 A|--8-10---10----------------------------8-|
 D|-----------------------------------------|
 e|----------10h12-13-12-----------------|----------------------------------|
 B|----------------------13--------------|----------------------------------|
 G|-------------------------10-9~--------|------6---6b-7b-6---6-------------|
 D|--7-----------------------------------|--7-8---7---------8---8-7-5-------|
 A|----8-7-8------------------------7~---|----------------------------8-7-5-|
 D|--------------------------------------|----------------------------------|
 e|--------------------------------------------------|
 B|--------------------------------------6-7---------|
 G|--------------------6-7-6-------6-7-9-----7-6-7-9-|
 D|--------------5-7-8-------8-7-8-------------------|
 A|--4-5-7-5-7-8-------------------------------------|
 D|--------------------------------------------------|

 


 


 This bit sounds cool with the two guitars.


 Harmony - Heafy


 

 
 e|--13~-------13------------------|--------------------------------------|
 B|---------15----15---------------|--------------------------------------|
 G|------------------14------14-14-|--14~-----12-14-15--14-12-14-12----14-|
 D|--------------------------------|--------------------------------15----|
 A|--------------------------------|--------------------------------------|
 D|--------------------------------|--------------------------------------|

 


 


 Harmony - Beaulieu


 

 
 e|--------------------------------|--------------------------------------|
 B|--15~-------15------------------|--------------------------------------|
 G|---------14----14---------------|--------------------------------------|
 D|------------------15------15-15-|--15~-----14-15-17--15-14-15-14----15-|
 A|--------------------------------|--------------------------------17----|
 D|--------------------------------|--------------------------------------|

 


 


 Beaulieu (this is a harmony, i cant be bothered to work out the other part)


 

 
 e|-------------------------------------17-------------15-------|
 B|----------------------------15h17-18----18-17p15h17----17-15-|
 G|-------7h10p7---------7h9p7----------------------------------|
 D|--8h10--------10p8h10----------------------------------------|
 A|-------------------------------------------------------------|
 D|-------------------------------------------------------------|
 e|-----------17----------------15----------------15-------17-------11-10----------|
 B|--15h17-18----18-17-15-17-18----18-17-15-17-18----18-17----17-16-------14-13-12-|
 G|--------------------------------------------------------------------------------|
 D|--------------------------------------------------------------------------------|
 A|--------------------------------------------------------------------------------|
 D|--------------------------------------------------------------------------------|
 e|----------------------------------------------|
 B|----------------------------------------------|
 G|--10~-----------------------5h7p5-----------5-|
 D|--------7h8p7-------------7-------8p7p5-7h8---|
 A|--------------10p8p7-8h10---------------------|
 D|----------------------------------------------|
 e|------------------------------------------------|
 B|--------------------5-6-5-----------------------|
 G|--7-9-7-5-------5-7-------7-5------9-10-12b-----|
 D|----------8-7-8---------------8-12--------------|
 A|------------------------------------------------|
 D|------------------------------------------------|
 e|--6p3-------3-9p6---------------------12p9---------9-|
 B|------5-2-5-------8-5-8-7-6-5--------------11-8-11---|
 G|------------------------------8-7-6-5----------------|
 D|-----------------------------------------------------|
 A|-----------------------------------------------------|
 D|-----------------------------------------------------|
 e|--12p9--------------------------15p12----------12-18p15----------17-|
 B|-------11-8-11-10-9-8-----------------14-11-14----------17-14-17----|
 G|----------------------11-10-9-8-------------------------------------|
 D|--------------------------------------------------------------------|
 A|--------------------------------------------------------------------|
 D|--------------------------------------------------------------------|

 


 


 Solo Backing


 This is kinda weird on the actual song so i just kept it simple.


 Play each chord for four bars with a few variations on the strumming pattern.


 

 
 e|-----|-----|-----|-----|
 B|-----|-----|-----|-----|
 G|-----|-----|-----|-----|
 D|--0--|--8--|--3--|--3--|
 A|--0--|--8--|--3--|--4--|
 D|--0--|--8--|--3--|--3--|

 


 


 


 I think this bit might actually be harmonics but I can't tell, this sounds good though.


 

 
 e|-------------------------------|-------------------------------|
 B|-------------------------------|-------------------------------|
 G|-----------17--17--17--17--17--|-----------14--14--14--14--14--|
 D|--0--1--0----------------------|--0--1--0----------------------|
 A|--0--1--0--15--15--15--15--15--|--0--1--0--12--12--12--12--12--|
 D|--0--1--0----------------------|--0--1--0----------------------|

 


 


 Other guitar enters here.


 

 
 e|-------------------------------|------------------------------|
 B|-------------------------------|------------------------------|
 G|-----------17--17--17--17--17--|-----------14--14--14--14-----|
 D|--0--1--0----------------------|--0--1--0------------------7--|
 A|--0--1--0--15--15--15--15--15--|--0--1--0--12--12--12--12--7--|
 D|--0--1--0----------------------|--0--1--0------------------7--|


Important: The song above is NOT stored on the Chordie server. The original song is hosted at www.guitartabs.cc. Chordie works as a search engine and provides on-the-fly formatting. Chordie does not index songs against artists'/composers' will. To remove this song please click here.

This song is displayed as text-only. Transposing and tuning is only available for chordpro-songs.
Rate #1 of 3 versions

Login - add to songbook

SHARE PAGE  




You need to log in to post comments