Guitar Tabs, Chords and Lyrics
Server problems seems to be fixed. Chordie has been experiencing problems with songs disappearing. These issues now seems to be fixed, but still verifying the fix. If you find anything strange, please email admin@chordie.com.


Ven al boske   Tronic

 
 G|-------------------------------------|
 D|-5555555--------5555555--------------|
 A|--------6666666--------6666666-6-8-8-|
 E|-------------------------------------|

 


 


 2.


 

 
 G|---------------------------|
 D|-5555555-------------------|
 A|--------6666666-3333333-5~-|
 E|---------------------------|

 


 


 Verse


 "Hoy estoy..."


 3.


 

 
 G|-------------------------------------|
 D|-------------------------------------|
 A|---------2222-3333---------2222-3333-|
 E|-33333333----------33333333----------| 

 


 "Porque tengo..."


 4.


 

 
 G|-------------------------------------|
 D|-55555555----------------------------|
 A|---------2222-3333---------2222-3333-|
 E|-------------------33333333----------|

 


 


 "Guardado está..."


 5.


 

 
 G|-------------------------------------|
 D|-------------------------------------|
 A|---------2222-3333---------2222-3333-|
 E|-33333333----------33333333----------| 

 


 "Porque tengo..."


 6.


 

 
 G|-------------------------------------|
 D|-55555555----------------------------|
 A|---------2222-3333---------2222-3333-|
 E|-------------------33333333----------|

 


 


 Chorus


 "Ven al bosque, siembra tu maldad..."


 7.


 

 
 G|--------------------------------------|
 D|----------22222222--------------------|
 A|-33333333-----------------------------|
 E|-------------------33333333-3333-2222-|

 


 


 "Te aseguro gran tranquilidad..."


 8.


 

 
 G|------------------------------------|
 D|----------22222222------------------|
 A|-33333333------------------------7~-|
 E|-------------------333333-555555----|

 


 


 Verse


 "Piensalo, piensalo y repiensalo..."


 9.


 

 
 G|-------------------------------------|
 D|-------------------------------------|
 A|---------2222-3333---------2222-3333-|
 E|-33333333----------33333333----------| 

 


 "Si te hago mal..."


 10.


 

 
 G|-------------------------------------|
 D|-55555555----------------------------|
 A|---------2222-3333---------2222-3333-|
 E|-------------------33333333----------|

 


 


 "Si quieres guerra..."


 11.


 

 
 G|-------------------------------------|
 D|-------------------------------------|
 A|---------2222-3333---------2222-3333-|
 E|-33333333----------33333333----------| 

 


 "La paz amigo..."


 12.


 

 
 G|-------------------------------------|
 D|-55555555----------------------------|
 A|---------2222-3333---------2222-3333-|
 E|-------------------33333333----------|

 


 


 Chorus


 "Ven al bosque, siembra tu maldad..."


 13.


 

 
 G|--------------------------------------|
 D|----------22222222--------------------|
 A|-33333333-----------------------------|
 E|-------------------33333333-3333-2222-|

 


 


 "Te aseguro gran tranquilidad..."


 14.


 

 
 G|--------------------------|
 D|----------22222222--------|
 A|-33333333-----------------|
 E|-------------------333333-|

 


 


 "Porque no regaré..."


 15.


 

 
 G|-------------------------------------|
 D|-------------------------------------|
 A|----------77777777-33333333----------|--x3
 E|-55555555-------------------33333333-|

 


 


 "Que se puede salir..."


 16.


 

 
 G|-------------|
 D|-------------|
 A|----------7~-|

 


 E|-55555555----|


 


 Bridge


 17.


 

 
 G|-------------------------------------|
 D|-5555555--------5555555--------------|
 A|--------6666666--------6666666-6-8-8-|
 E|-------------------------------------|

 


 


 18.


 

 
 G|----------------------------------------------------|
 D|-5555555--------------------------------------------|
 A|--------6666666-33333333-33333333-55555555-55555555-|
 E|----------------------------------------------------|

 


 


 Chorus


 "Ven al bosque, siembra tu maldad..."


 19.


 

 
 G|--------------------------------------|
 D|----------22222222--------------------|
 A|-33333333-----------------------------|
 E|-------------------33333333-3333-2222-|

 


 


 "Te aseguro gran tranquilidad..."


 20.


 

 
 G|--------------------------|
 D|----------22222222--------|
 A|-33333333-----------------|
 E|-------------------333333-|

 


 


 "Porque no regaré..."


 21.


 

 
 G|-------------------------------------|
 D|-------------------------------------|
 A|----------77777777-33333333----------|--x6
 E|-55555555-------------------33333333-|

 


 


 "Que lo malo pasó..."


 22.


 

 
 G|-------------|
 D|-------------|
 A|----------7~-|


Important: The song above is NOT stored on the Chordie server. The original song is hosted at www.guitartabs.cc. Chordie works as a search engine and provides on-the-fly formatting. Chordie does not index songs against artists'/composers' will. To remove this song please click here.

This song is displayed as text-only. Transposing and tuning is only available for chordpro-songs.
Rate #1 of 1 versions

Jango Player

Login - add to songbook

SHARE PAGE  



You need to log in to post comments