Guitar Tabs, Chords and Lyrics
Major upgrade!! After one year development the new version of Chordie is now online! Please give feedback.


All Because of You  U2

U2 - How To Dismantle An Atomic Bomb
***
Samuel Varga
vsamu@mail.datanet.hu
***
 
 --- Intro ---

/ Guitar I
 
 | e--12---12-12\10-10\7-7---7-7\10-10\12-- --12---12-12\10-10\7-7---7h8p7/5-7p5p0--|
 | B--------------------------------------- ---------------------------------------------|
 | G--------------------------------------- ---------------------------------------------|
 | D--------------------------------------- ... -----------------------------------------|
 | A--------------------------------------- -----------------------------------------|
 | E--------------------------------------- --------------------------------------------|

|
| Guitar II
 
 | e--12-0-12-0-12-12-0--|
 | B---------------------|
 | G---------------------|
 | D---------------------|
 | A---------------------|
 | E---------------------|

\
 
 --- Theme ---

[E] [G] [D]  
 
 e---------------------------|
 B---------------------------|
 G-------------7--6-7-6-7-6--|
 D--2--2--2-5--7--7-7-7-7-7--|
 A--2--2--2-5--5--5-5-5-5-5--|
 E--0--0--0-3----------------|
 --- Verse ---

[E] [D] [A] [E] [D] [A]  
[E] [D] [A] [A] [D] [G]  
 
 --- Chours ---

[D] [A]  
 
 e-------------------|
 B-------------------|
 G--7--6-7-6-7-6-----|
 D--7--7-7-7-7-7--7--|
 A--5--5-5-5-5-5--7--|
 E----------------5--|

All Becouse Of You...
 
 --- Theme ---
 --- Verse ---
 --- Chours ---
 / --- Theme ---

|
| Guitar I
 
 | e--12---12-12\10-10\7-7---7h8p7\5-7--|
 | B------------------------------------|
 | G------------------------------------|
 | D------------------------------------|
 | A------------------------------------|
 | E------------------------------------|

\
 
 --- Bridge -------------------------------------------------------------|
 e--9--10--9---5-5-2-2----9--10--9--5-5--7p5-7p5----9--10--9-------------|
 B-------------------------------------------------------------10-10-7---|
 G-----------------------------------------------------------------------|
 D-----------------------------------------------------------------------|
 A-----------------------------------------------------------------------|
 E-----------------------------------------------------------------------|
 e---------------------------------------------------------------------------------|
 B----7-7---7-7---7------------------7-7---7-7---7------------------7-7---7-7---7--|
 G--9-----9-----9----9-9-7-7-6-6---9-----9-----9----9-9-7-7-6-6---9-----9-----9----|
 D---------------------------------------------------------------------------------|
 A---------------------------------------------------------------------------------|
 E---------------------------------------------------------------------------------|
 --- Intro ---
 --- Solo ---------------------------------------------------------------------|
 e-----------------------------------------------------------------------------|
 B----8---10b12----8---8-10b12-12-12-12-----8---10-8---8---8--10b12-12-12-12---|
 G--9---9--------9---9--------------------9---9------9---9---------------------|
 D-----------------------------------------------------------------------------|
 A-----------------------------------------------------------------------------|
 E-----------------------------------------------------------------------------|
 e------------------------------------------------------14-14-14-14-14-14-15-15---------19---------19--------|
 B----8---10-8---8---8-10-12-12-12-15-15-15-15-17-17-17-------------------------17-17------17-17------17-17--|
 G--9---9------9---9-----------------------------------------------------------------------------------------|
 D-----------------------------------------------------------------------------------------------------------|
 A-----------------------------------------------------------------------------------------------------------|
 E-----------------------------------------------------------------------------------------------------------|
 --- Theme ---
 --- Chours ---
 --- END ---

[E]  
*** CHORD ***
E - 001220
[D] [-] [577755]  
[A] [-] [556775]  
[G] [-] [334553]  
***
Samuel Varga
vsamu@mail.datanet.hu
***

Important: The song above is NOT stored on the Chordie server. The original song is hosted at www.guitartabs.cc. Chordie works as a search engine and provides on-the-fly formatting. Chordie does not index songs against artists'/composers' will. To remove this song please click here.

Text color:
Chord color:
Chord grids: 
Font size:    
Page size: 

A D E G
Rate #1 of 10 versions

Login - add to songbook

SHARE PAGE  




You need to log in to post comments