Guitar Tabs, Chords and Lyrics
Major upgrade!! After one year development the new version of Chordie is now online! Please give feedback.


Some Days Are Better Than Others  U2

Song Title: Some Days Are Better Than Others
Artist: U2
 
 ----------------------------------------------

This is the tab for "Some Days Are Better Than Others"
from the U2 album Zooropa.
I play this with my bass tuned down a 1/2 step.
 
 ------------------------------------------------------

Intro:
 
 |--------------------|
 |--11----9-9-9-11----|
 |-----11-------------|
 |-----------------9--|

After this, there are basically four parts to the song.
It's pretty repetitive, and would be a waste of space to
type them all out, so I split them into sections.
Part A:
 
 |----------------------|
 |--11----9-9-9-11------|
 |-----11---------------|
 |-----------------9-9--|

Part B:
 
 |---------------|
 |---------------|
 |--11/4--4\14---|
 |---------------|

Part C:
 
 |-------------------|
 |-------------------|
 |--9-9-9-9----------|
 |----------7-7-7-7--|

Part D:
 
 |-------------------|
 |-------------------|
 |-------------------|
 |--4-4-4-4-7-7-7-7--|

The progression is like this:
Intro
Ax5 B Ax3 B A C A C Ax3 B Ax3
B A C A C Ax5 D Ax3 D Ax3 D A
[C] [A] [C] [A] [C] [A] [C] [A] [D] [A] [D] [A] [D] [A] 
[D]Fad[A]e..[C].[A]
It looks like kind of a mess, but it's really easy if you
listen to the song and get a feel for it.
 
 --------------------------------------------------------------

Submitted by: Pete White (donpedro@juno.com)

Important: The song above is NOT stored on the Chordie server. The original song is hosted at www.guitartabs.cc. Chordie works as a search engine and provides on-the-fly formatting. Chordie does not index songs against artists'/composers' will. To remove this song please click here.

Text color:
Chord color:
Chord grids: 
Font size:    
Page size: 

A C D
Rate #2 of 2 versions

Login - add to songbook

SHARE PAGE  




You need to log in to post comments