Guitar Tabs, Chords and Lyrics
Major upgrade!! After one year development the new version of Chordie is now online! Please give feedback.


Madman  Ugly Kid Joe

 
 --------------------------------------------------------------------------- 

MADMAN-Ugly Kid Joe
Words and Music by:Ugly Kid Joe
Album:AS UGLY AS THEY WANNA BE
Tabbed by:Cade Nickels
Tuning: Half-step down
Intro P.M.----| P.M. P.M.
 
 e|--------------------|-------------------|--------------------------------|
 B|----Carnival--------|-------------------|--------------------------------|
 G|-----sounds---------|-------------------|--------------------------------|
 D|-(approx.13sec)-----|-------------------|----------7---6--5-----4h5p4h5--|
 A|--------------------|-------------------|---0--0-0---0-------0-----------|
 E|--------------------|------------X17\\--|--------------------------------|
 P.M.----| P.M. P.M. (1/4) P.M.----| P.M. P.M.
 e|-----------------------------/---|---------------------------------------|
 B|----------------------7/8\7b/----|---------------------------------------|
 G|----------------------7/8\7b-----|---------------------------------------|
 D|----------7----6----x------------|----------7---6--5-----4h5p4h5---------|
 A|---0--0-0---0-------x------------|---0--0-0---0-------0------------------|
 E|-----------------0---------------|---------------------------------------|

~~ P.M.----| P.M. P.M.
 
 e|----------------------|-------------------------------|
 B|----------------------|-------------------------------|
 G|---------5/6--7-----5-|-------------------------------|
 D|---------5/6--7-------|---------7---6--5-----4h5p4h5--|
 A|--0--0-0-3/4--5-------|--0--0-0---0-------0-----------|
 E|----------------------|-------------------------------|
 P.M.----| P.M. P.M. (1/4) P.M.----| P.M. P.M.
 e|-----------------------------/---|---------------------------------------|
 B|----------------------7/8\7b/----|---------------------------------------|
 G|----------------------7/8\7b-----|---------------------------------------|
 D|----------7----6----x------------|----------7---6--5-----4h5p4h5---------|
 A|---0--0-0---0-------x------------|---0--0-0---0-------0------------------|
 E|-----------------0---------------|---------------------------------------|

~~~~~~~~
 
 e|---------12-----------------------|
 B|----9-12-5--12-9------------------|
 G|-/9---4-----4----9----------------|
 D|----6----------6------------------|
 A|-/7--------------7----------------|
 E|--------------------------14\\\\\-|

1st Verse
"Dis - ney-land ... Sure, Ba-by ...
P.M.----| P.M. P.M.
 
 e|--------------------------------|-------------------------|
 B|--------------------------------|-------------------------|
 G|--------------------------------|-------------------------|
 D|----------7---6--5-----4h5p4h5--|--------7---6----4h5-----|
 A|---0--0-0---0-------0-----------|-0--0-0---0----0-----3p0-|
 E|--------------------------------|-------------------------|

Hand in ... Dis - ney ...
 
 e|-------------8-8-8-8----|------------8-8-8-8-|
 B|-------------8-8-8-8----|-7--5--7----8-8-8-8-|
 G|--7--5--7----5-5-5-5-x\-|-7--5--7----5-5-5-5-|
 D|--7--5--7----5-5-5-5-x\-|-7--5--7----5-5-5-5-|
 A|--5--3--5---------------|-5--3--5------------|
 E|--5-----5---------------|--------------------|

we go! Not slow
 
 P.M.----| P.M. P.M. P.M.----| P.M. P.M. (1/4)
 e|--------------------------------|---------------------------/---|
 B|--------------------------------|--------------------7/8\7b/----|
 G|--------------------------------|--------------------7/8\7b-----|
 D|----------7---6--5-----4h5p4h5--|----------7---6----x-----------|
 A|---0--0-0---0-------0-----------|---0--0-0---0---0--x-----------|
 E|--------------------------------|-------------------------------|

"Hap-piest ... till ...
P.M.----| P.M. P.M.
 
 e|--------------------------------|-------------------------|
 B|--------------------------------|-------------------------|
 G|--------------------------------|-------------------------|
 D|----------7---6--5-----4h5p4h5--|--------7---6----4h5-----|
 A|---0--0-0---0-------0-----------|-0--0-0---0----0-----3p0-|
 E|--------------------------------|-------------------------|

Hand in ... with ...
 
 e|-------------8-8-8-8----|------------8-8-8-8-|
 B|-------------8-8-8-8----|-7--5--7----8-8-8-8-|
 G|--7--5--7----5-5-5-5-x\-|-7--5--7----5-5-5-5-|
 D|--7--5--7----5-5-5-5-x\-|-7--5--7----5-5-5-5-|
 A|--5--3--5---------------|-5--3--5------------|
 E|--5-----5---------------|--------------------|

she goes! Wuh oh!
 
 P.M.----| P.M. P.M. P.M.----| P.M. P.M. (1/2)~~~~~~~
 e|--------------------------------|-----------------------/----------|
 B|--------------------------------|----------------------/-----------|
 G|--------------------------------|-------------------7b/-----7------|
 D|----------7---6--5-----4h5p4h5--|----------7---6-------------------|
 A|---0--0-0---0-------0-----------|---0--0-0---0---0-----------------|
 E|--------------------------------|----------------------------------|

Chorus
Knife ... No feel-ings, axe wield-in',...
[E5] [Eb5] [D5] [Eb5] [E5] [D]  
 
 e|--x----------x----x------------x----x----------x------|
 B|--x----------x----x------------x----x----------7------|
 G|--9----------8----7------------8----9----------7------|
 D|--9----------8----7------------8----9----------7------|
 A|--7----------6----5------------6----7----------5------|
 E|--x----------x----x------------x----x----------x------|

mad-man is loose in Dis-ney -land.
[C] [D] [A]  
 
 e|--x-----------x-------x-------------|
 B|--5-----------7-------2-------------|
 G|--5-----------7-------2-------------|
 D|--5-----------7-------2-------------|
 A|--3-----------5-------0-------------|
 E|--x-----------x-------x-------------|
 P.M.----| P.M. P.M. P.M.----| P.M. P.M. (1/4)
 e|--------------------------------|---------------------------/---|
 B|--------------------------------|--------------------7/8\7b/----|
 G|--------------------------------|--------------------7/8\7b-----|
 D|----------7---6--5-----4h5p4h5--|----------7---6----x-----------|
 A|---0--0-0---0-------0-----------|---0--0-0---0---0--x-----------|
 E|--------------------------------|-------------------------------|

P.M.----| P.M. P.M.
 
 e|--------------------------------|---------------------|
 B|--------------------------------|---------------------|
 G|--------------------------------|---------------------|
 D|----------7---6--5-----4h5p4h5--|---------------------|
 A|---0--0-0---0-------0-----------|-----7-7---6----5-3--|
 E|--------------------------------|-0-0-----0----0------|

2nd Verse
"C'mere,lit ... Peter pan'...
P.M.----| P.M. P.M.
 
 e|--------------------------------|-------------------------|
 B|--------------------------------|-------------------------|
 G|--------------------------------|-------------------------|
 D|----------7---6--5-----4h5p4h5--|--------7---6----4h5-----|
 A|---0--0-0---0-------0-----------|-0--0-0---0----0-----3p0-|
 E|--------------------------------|-------------------------|

up and... all around ...
 
 e|-------------8-8-8-8----|------------8-8-8-8-|
 B|-------------8-8-8-8----|-7--5--7----8-8-8-8-|
 G|--7--5--7----5-5-5-5-x\-|-7--5--7----5-5-5-5-|
 D|--7--5--7----5-5-5-5-x\-|-7--5--7----5-5-5-5-|
 A|--5--3--5---------------|-5--3--5------------|
 E|--5-----5---------------|--------------------|

they go! Wuh oh!
 
 P.M.----| P.M. P.M. P.M.----| P.M. P.M. (1/2)~~~~~~~
 e|--------------------------------|-----------------------/----------|
 B|--------------------------------|----------------------/-----------|
 G|--------------------------------|-------------------7b/-----7------|
 D|----------7---6--5-----4h5p4h5--|----------7---6-------------------|
 A|---0--0-0---0-------0-----------|---0--0-0---0---0-----------------|
 E|--------------------------------|----------------------------------|

Knife ... No feel-ings, axe wield-in',...
[E5] [Eb5] [D5] [Eb5] [E5] [D]  
 
 e|--x----------x----x------------x----x----------x------|
 B|--x----------x----x------------x----x----------7------|
 G|--9----------8----7------------8----9----------7------|
 D|--9----------8----7------------8----9----------7------|
 A|--7----------6----5------------6----7----------5------|
 E|--x----------x----x------------x----x----------x------|

mad-man is loose in Dis-ney -land.
[C] [D] [A]  
 
 e|--x-----------x-------x-------------|
 B|--5-----------7-------2-------------|
 G|--5-----------7-------2-------------|
 D|--5-----------7-------2-------------|
 A|--3-----------5-------0-------------|
 E|--x-----------x-------x-------------|

[in]  
 
 P.M.----| P.M. P.M. P.M.----| P.M. P.M. (1/4)
 e|--------------------------------|---------------------------/---|
 B|--------------------------------|--------------------7/8\7b/----|
 G|--------------------------------|--------------------7/8\7b-----|
 D|----------7---6--5-----4h5p4h5--|----------7---6----x-----------|
 A|---0--0-0---0-------0-----------|---0--0-0---0---0--x-----------|
 E|--------------------------------|-------------------------------|

P.M.----| P.M. P.M.
Dis-ney-land
 
 e|--------------------------------|---------------------|
 B|--------------------------------|---------------------|
 G|--------------------------------|---------------------|
 D|----------7---6--5-----4h5p4h5--|---------------------|
 A|---0--0-0---0-------0-----------|-----7-7---6----5-3--|
 E|--------------------------------|-0-0-----0----0------|

Bridge
Mad-man_ is_ loose in Dis-ney-land_ He's back here_ by_ pop-u -
[D5] [C5] [D5] [C5] [C] [D5] [C5] [A] [A5] [D5] [C5] [D5] [C5] [C]  
 
 e|-X----X---X----X---X---X---X---X-----X-------X----X-----X---X---X-----|
 B|-X----X---X----X---5---X---X---2-----X-------X----X-----X---X---5-----|
 G|-7----5---7----5---5---7---5---2-----14------7----5-----7---5---5-----|
 D|-7----5---7----5---5---7---5---2-----14------7----5-----7---5---5-----|
 A|-5----3---5----3---3---5---3---0-----12------5----3-----5---3---3-----|
 E|-X----X---X----X---X---X---X---X-----X-------X----X-----X---X---X-----|

-lar de-mand._ Mad-man is_loose in Dis-ney-land._ He'll take no_
D5 C5 AX6 D5 C5 D5 C5 C D5 C5 A A5 D5 C5
 
 e|---X--X--X---------X---X---X---x---X---X---X---X----X-------X----X---|
 B|---X--X--2---------X---X---X---x---5---X---X---2----X-------X----X---|
 G|---7--5--2---------7---5---7---5---5---7---5---2----14------5----5---|
 D|---7--5--2---------7---5---7---5---5---7---5---2----14------5----5---|
 A|---5--3--0---------5---3---5---3---3---5---3---0----12------7----3---|
 E|---X--X--X---------X---X---X---x---X---X---X---X----X-------X----X---|

shit,_but He'll takeyour_ head_____________________________________
D5 C5 C D5 C5 \ /[/]
 
 e|--X---X-----X-----X---X----|--------------\--/------------------------|
 B|--X---X-----5-----X---X----|---------------\/-|-----------------------|
 G|--7---5-----5-----7---5----|-2-----------(2)b-|-(2)-------------------|
 D|--7---5-----5-----7---5----|-2-----------(2)b-|-(2)-------------------|
 A|--5---3-----3-----5---3----|--------Trem.bar--|-------Trem.bar--------|
 E|--X---X-----X-----X---X----|------------------|-----------------------|

____________
\2 / \ 2/ \2 / \ 2/
 
 e|-------\/---\/---\/---\/--------|-------------------------------------|
 B|--------b----b----b----b--------|-pick sl.----------------------------|
 G|-(2)----------------------------|-------------------------------------|
 D|-(2)----------------------------|--x\\\\\\\\\\\\\\\\\\\\\\\\\\\\\\\\--|
 A|---------------Trem.bar---------|--x\\\\\\\\\\\\\\\\\\\\\\\\\\\\\\\\--|
 E|--------------------------------|--x\\\\\\\\\\\\\\\\\\\\\\\\\\\\\\\\--|

Rhy.Fig3
 
 e|-------------------------|---------------------|
 B|--2----------------------|-2-------------------|
 G|--2----------------------|-2-----------------7-|
 D|--2----------------------|-2-----------------7-|
 A|--0--0-0-----------------|-0----0-0---5--5---5-|
 E|----------0-3--3-0-3p2-0-|----------0-3--3-0---|

"Sur-
 
 e|---------------------------|----------------------|
 B|--2------------------------|-2--------------------|
 G|--2------------------------|-2----------7--7----5-|
 D|--2------------------------|-2----------7--7----5-|
 A|--0----0-0-----------------|-0----0-0-0-5--5--0-3-|
 E|-----------0-3--3--0-3p2-0-|----------------------|

-prise... com-in'...
 
 e|-------------------------|---------------------|
 B|--2----------------------|-2-------------------|
 G|--2----------------------|-2-----------------7-|
 D|--2----------------------|-2-----------------7-|
 A|--0--0-0-----------------|-0----0-0---5--5---5-|
 E|----------0-3--3-0-3p2-0-|----------0-3--3-0---|

sure as ... kill-er...
 
 e|---------------------------|----------------------|
 B|--2------------------------|-2--------------------|
 G|--2------------------------|-2----------7--7----5-|
 D|--2------------------------|-2----------7--7----5-|
 A|--0----0-0-----------------|-0----0-0-0-5--5--0-3-|
 E|-----------0-3--3--0-3p2-0-|----------------------|

( Tab from: http://www.guitartabs.cc/tabs/u/ugly_kid_joe/madman_tab_ver_3.html )
Youcan run__ and you can_ hide,_ but
 
 e|--2--2---------------|-2--2------------------|
 B|--3--3---------------|-3--3------------------|
 G|--2--2---0-0---------|-2--2-----0-0-----10---|
 D|--0--0---------------|-0--0-0-----------10---|
 A|--0----0-3-3-2-3p2p0-|-0------0-3-3--0--8----|
 E|---------------------|-----------------------|

you ain't... got you...
 
 e|-------------------------|---------------------|
 B|--2----------------------|-2-------------------|
 G|--2----------------------|-2-----------------7-|
 D|--2----------------------|-2-----------------7-|
 A|--0--0-0-----------------|-0----0-0---5--5---5-|
 E|----------0-3--3-0-3p2-0-|----------0-3--3-0---|

Axe ... child... a mad... loose_ in Dis-ney-
[E5] [Eb5] [D5] [Eb5] [E5] [D]  
 
 e|--x----------x----x------------x----x----------x-------------|
 B|--x----------x----x------------x----x----------7-------------|
 G|--9----------8----7------------8----9----------7--pick sl.---|
 D|--9----------8----7------------8----9----------7-------------|
 A|--7----------6----5------------6----7----------5--x\\\\\\\\\-|
 E|--x----------x----x------------x----x----------x--x\\\\\\\\\-|

Guitar solo (full)
land. (1/2)--*trem.bar-[/]- ~~~~~~~~~~~~~~~ sl.
 
 e|----------/-----------------------------------------------------|
 B|---------/------------------------------------------------------|
 G|-------12b---------------------(12)-------------x\\\\\\\\\\\\\\-|
 D|------------------------------------------------x\\\\\\\\\\\\\\-|
 A|----------------------------------------------------------------|
 E|----------------------------------------------------------------|

(*pull up bar 1 1/2 steps while vibratoing.)
(Full) (Full)~~~~ (Full) ~~~~~~
 
 e|---/-----13----/-----------/--\-------------|
 B|-13b---------13b---------13b--(13)p10-13----|
 G|--------------------------------------------|
 D|--------------------------------------------|
 A|--------------------------------------------|
 E|--------------------------------------------|

(Full)~~
 
 e|---/-----17h20p17----17h20p17----17h20p17----17h20p17-----17-17-|
 B|-20b---------------19----------19----------19----------19-------|
 G|----------------------------------------------------------------|
 D|----------------------------------------------------------------|
 A|----------------------------------------------------------------|
 E|----------------------------------------------------------------|

(Full)
(1/2)/~~~~
 
 e|-20p19p17-17-------19----17----------------------------------//-----|
 B|-------------20-20----20----17h19p17----17-17-------------19b/------|
 G|-------------------------------------19-------20p19p17-17-19b-------|
 D|--------------------------------------------------------------------|
 A|--------------------------------------------------------------------|
 E|--------------------------------------------------------------------|

P.M.--| P.M. P.M.---| P.M. [(2)]/
 
 e|-------------------------------------|----------------22p20----20b---|
 B|-------------------------------------|--------15---13-------22-------|
 G|-------14---13--12--11h12p11h12p11---|-------------------------------|
 D|-------------------------------------|-0--0-0----0-------------------|
 A|-0--0-----0--------------------------|-------------------------------|
 E|-------------------------------------|-------------------------------|
 e|------------------------------|-4p0---2p0---4p0---2p0---4p0---2----|
 B|------------------------------|-----0-----0-----0-----0-----0---0--|
 G|---------14---13-12----14\\\\-|------------------------------------|
 D|------------------------------|------------------------------------|
 A|-0--0-0-----0-----------------|------------------------------------|
 E|------------------------------|------------------------------------|
 e|-7p4-0-6p4-6-7p4-0-6p4-0-7p4p0-6p4p0-|-10p7-0-9p7-0-10p7-0-9p7-0---|
 B|-------------------------------------|-----------------------------|
 G|-------------------------------------|-----------------------------|
 D|-------------------------------------|-----------------------------|
 A|-------------------------------------|-----------------------------|
 E|-------------------------------------|-----------------------------|

(1.5)
[/]  
 
 e|-10p7p0-9p7p0-|-16p12-0-14p12-0-16p12-0-14p12-0-17b----| End solo
 B|--------------|----------------------------------------|
 G|--------------|----------------------------------------|
 D|--------------|----------------------------------------|
 A|--------------|----------------------------------------|
 E|--------------|----------------------------------------|

Have you_... mad - man_... Got you_...
~~~ ~~~
 
 e|-------------------------|--------------------|--------------------------|
 B|-----------7-------------|-----------7--8-7---|-----------7--------------|
 G|-7----5----------7--5----|-7----5-------------|-7----5----------7--5-----|
 D|----0----0------0------0-|----0----0---0----0-|----0----0------0---------|
 A|-------------------------|--------------------|-----------------------0--|
 E|-------------------------|--------------------|--------------------------|

Have his__... Noth-in'_ you... Head-...
 
 e|-------------------------|------------------------|----------------------|
 B|-------------------------|----------7-------------|----------7---8-7-----|
 G|-----------6-------------|-7---5--------7--5------|-7----5---------------|
 D|-7----5----------7--5--0-|---0----0---0-------0-0-|----0---0---0-----0-0-|
 A|----0----0-----0---------|------------------------|----------------------|
 E|-------------------------|------------------------|----------------------|

Mad - man... ~~~ P.M. Dis - ney - land!____
 
 e|----------------------------|--------------------------------------------|
 B|-----------7----------------|--------------------------------------------|
 G|-7----5-----------7--5------|-9-----9-----9--------(9)/////////////////--|
 D|----0----0------0-------0---|-9-----9-----9--------(9)/////////////////--|
 A|--------------------------0-|-7-----7-----7--------(7)/////////////////--|
 E|----------------------------|--------------------------------------------|
 P.M.----| P.M. P.M. P.M.----| P.M. P.M. (1/4)
 e|--------------------------------|---------------------------/---|
 B|--------------------------------|--------------------7/8\7b/----|
 G|--------------------------------|--------------------7/8\7b-----|
 D|----------7---6--5-----4h5p4h5--|----------7---6----x-----------|
 A|---0--0-0---0-------0-----------|---0--0-0---0---0--x-----------|
 E|--------------------------------|-------------------------------|

~~~~~~~
 
 e|--------------------------------|---------12---------------------|
 B|--------------------------------|----9-12-5--12-9----------------|
 G|--------------------------------|-/9---4-----4----9--------------|
 D|----------7---6--5-----4h5p4h5--|----6----------6----------------|
 A|---0--0-0---0-------0-----------|-/7--------------7--------------|
 E|--------------------------------|------------------------14\\\\\-|

"Dis-ney- ... Cal-i-for...
P.M.----| P.M. P.M.
 
 e|--------------------------------|-------------------------|
 B|--------------------------------|-------------------------|
 G|--------------------------------|-------------------------|
 D|----------7---6--5-----4h5p4h5--|--------7---6----4h5-----|
 A|---0--0-0---0-------0-----------|-0--0-0---0----0-----3p0-|
 E|--------------------------------|-------------------------|

Sun-ny_... we're A...
 
 e|-------------8-8-8-8----|------------8-8-8-8-|
 B|-------------8-8-8-8----|-7--5--7----8-8-8-8-|
 G|--7--5--7----5-5-5-5-x\-|-7--5--7----5-5-5-5-|
 D|--7--5--7----5-5-5-5-x\-|-7--5--7----5-5-5-5-|
 A|--5--3--5---------------|-5--3--5------------|
 E|--5-----5---------------|--------------------|

for now,__ and how.
 
 P.M.----| P.M. P.M. P.M.----| P.M. P.M. (1/2)~~~~~~~
 e|--------------------------------|-----------------------/----------|
 B|--------------------------------|----------------------/-----------|
 G|--------------------------------|-------------------7b/-----7------|
 D|----------7---6--5-----4h5p4h5--|----------7---6-------------------|
 A|---0--0-0---0-------0-----------|---0--0-0---0---0-----------------|
 E|--------------------------------|----------------------------------|

Chorus
Knife ... No feel-ings, axe wield-in',...
[E5] [Eb5] [D5] [Eb5]  
 
 e|--x----------x----x------------x---------------------------|
 B|--x----------x----x------------x---------------------------|
 G|--9----------8----7------------8-------------------4-------|
 D|--9----------8----7------------8-------6-------------------|
 A|--7----------6----5------------6----7--------7--5-------5--|
 E|--x----------x----x------------x---------------------------|

mad - man_ is loose_ in Dis-ney-land.
 
 P.M.-----------|
 e|---------------------------------|------------------------------|
 B|---------------------------------|------------------------------|
 G|---------------------------------|------------------------------|
 D|---------------------------------|-------7-----6--5----4h5p4h5--|
 A|-3-3-3-3--3-3-3-5----------------|-0--00----0--------0----------|
 E|---------------------17\\\\\\\\--|------------------------------|

In Dis-ney -land,_________ oh._____"
[(1/4)]  
 
 e|---------------------------/--|---------------------------|
 B|--------------------------/---|---------------------------|
 G|--------------------7/8\7b----|---------------------------|
 D|--------7----6----x-7/8\7b----|--------7---6--5---4h5p4h4-|
 A|-0--0-0----0------x-----------|-0--0-0---0------0---------|
 E|----------------0-------------|---------------------------|

~~~~~~~~~~~~~~~~~~~~
 
 e|-------------------------------------|
 B|-8p7-5---5---------------------------|
 G|-------8---5p7p5---------------------|
 D|-----------------7-------------------| End.
 A|-------------------------------------|
 E|-------------------------------------|

____________________________________________
|
| / slide up
| \ slide down
| h hammer-on
| p pull-off
| () in parenthesis = how far to bend
| ~ vibrato
| + harmonic
| x Mute note
|P.M. palm mute
___________________________________________________________________
These fills are just rhythms to play for Gtr.II while
Gtr.I plays the solo.
Fill1
 
 P.M.----| P.M. P.M. P.M.----| ~~~~~~~~
 e|--------------------------------|--------------------------------|
 B|--------------------------------|--------------------------------|
 G|--------------------------------|---------7----5--7p5----5-------|
 D|----------7---6--5-----4h5p4h5--|--0--0-0----0---------7---------|
 A|---0--0-0---0-------0-----------|--------------------------------|
 E|--------------------------------|--------------------------------|
 P.M.----| P.M. P.M. P.M.----|
 e|--------------------------------|--------------------------------|
 B|--------------------------------|--------------------------------|
 G|--------------------------------|--------------------------------|
 D|----------7---6--5-----4h5p4h5--|--------------------------------|
 A|---0--0-0---0-------0-----------|--------7----6-----5--3h5-3-----|
 E|--------------------------------|-0--0-0----0----0---------------|

P.M.--| P.M. P.M. P.M.---| P.M. P.M. ~~~~~~~~
 
 e|-------------------------------|---------------------------------|
 B|-------------------------------|---------------------------------|
 G|-------------------------------|---------------------------------|
 D|-------------------------------|---------------------------------|
 A|--------7-7----6-----5-3-------|---------7-7-----6-----5-3-------|
 E|-0-0-0------0-----0------------|-0--0-0-------0-----0------------|

Disneyland is the place to be, c'mon baby, just you and me
Hand in hand, to Disneyland, we go ! Not slow
Happiest place, in the world until a madman grabs a girl;
Hand in hand, with the madman she goes ! Oh oh !
Knife gleamin' no feelin's, axe wieldin', child stealin'
madman is loose... in Disneyland. (in Disneyland)
Come here little girl if you wanna see, Peter Pan's Magic
Flight on L.S.D.
Up and down, all around, we go ! Whoa oh !
Knife gleamin' no feelin's, axe wieldin', child stealin'
madman is loose... in Disneyland. (in Disneyland)
Madman is loose in Disneyland, he's back here by popular de-
[mand]Madman is loose in Disneyland, he'll take no shit but he'll
take your head!
Surprise, Surprise, I'm comin' at ya' live
I sure as hell ain't Mickey Mouse, I'm a killer in disguise
You can run and you can hide
But you ain't gettin' away 'cause I got you in my sight
Axe wieldin', child stealin'
I'm a mad motherfuckin' man and I'm loose!... in disneyland!
have you heard the news, madman sure is loose
Got you by the noose, have his way with you
Nothin' you can do, headlines in the news
Madman sure is loose, in Disneyland
Disneyland is the place to be, in California, by the sea
Sunny day, well A.O.K., for now, and how
Knife gleamin' no feelin's, axe wieldin', child stealin'
madman is loose... in Disneyland. (in Disneyland)
====================================================================
This song is alot of fun.
learn it. rate it. play it.
====================================================================

Important: The song above is NOT stored on the Chordie server. The original song is hosted at www.guitartabs.cc. Chordie works as a search engine and provides on-the-fly formatting. Chordie does not index songs against artists'/composers' will. To remove this song please click here.

Text color:
Chord color:
Chord grids: 
Font size:    
Page size: 

A A5 C C5 D D5 E5 Eb5
Rate #1 of 1 versions

Jango Player

Login - add to songbook

SHARE PAGE  



You need to log in to post comments