Guitar Tabs, Chords and Lyrics
Server problems seems to be fixed. Chordie has been experiencing problems with songs disappearing. These issues now seems to be fixed, but still verifying the fix. If you find anything strange, please email admin@chordie.com.


Fingertips   Unwound

 
 |---------------------------------------0---------------------0-0-|
 |-------1-----0-------------------------1---------------------0-0-|
 |-------0-------0-------0-0-0-0-0-0-----0---------------0-0-0-0-0-|
 |---2---2---------------0-0-0-0-0-2-----2---------------0-0-0-0-0-|
 |---2---2-------------2---3-3-2-0-2-----2-------------2---3-3-2-0-|
 |-0---0-----------3-3-------------0---0---0-0-0-0-3-3-------------|

 


 lyric: "it's not like we care so much..."


 


 [bass]  

 
 |-----------------------------------------------------------------|
 |-----------------------------------------------------------------|
 |-7---7-7---7-7-7s10-10s3---3s5-8-7-7-7-7-7-7-7-7s10-10s3---3s5-8-|
 |-----------------------------------------------------------------|

 


 s = play the first note and slide to the next


 ( Tab from: http://www.guitartabs.cc/tabs/u/unwound/fingertips_tab.html )


 chorus


 guitar


 

 
 |-------0-----------0-0-0-0-0-0-0-------0-----------0-0-0-0-0-0-0-|
 |-------0-----------3-3s5-5-5-5-3-------0-----------3s5-5-5-5-5-3-|
 |-------3b--------0---------------------3b--------0---------------|
 |-2-------------2-0---------------2-2---------2-2-0---------------|
 |-2-----------2-2-----------------2-2---------2-2-----------------|
 |-0---------0-0-0-----------------0-0-------0---0-----------------|

 


 b = play the note and bend the string up a bit


 lyric: "your fingertips my evindence..."


 


 [bass]  

 
 |-----------------------------------------------------------------|
 |-----------------------------------------------------------------|
 |-----------------------------------------------------------------|
 |-7-7---7---7-7-7s0-0-0-0h2-2s10-s7-7---7---7-7-7s0-0-0-0h2-2s10s-|

 


 h = play the first note and then hammer your finger onto the next


 


 middle


 guitar (best guess)


 

 
 |-0-0-0-2-2-2-0-0-0-0-0-0-0-0-0-0-0-0-0-0-0-0-0-0-|
 |-0-0-0-0-0-0-0-0-3-3-3-5-5-5-3-3-1-1-1-1-1-1-1-1-|
 |-------------0-0-0-0-0-0-0-0-0-0-1-1-1-1-1-1-1-1-|
 |-2-2-2-4-4-4-------------------------------------|
 |-------------------------------------------------|
 |-------------------------------------------------|

 


 


 [bass]  

 
 |-------------------------------------------------|
 |---------------------------------6-6-6-6-6-6-6-6-|
 |-7-7-7-9-9-9-7-7-5-5-5-7-7-7-5-5-----------------|
 |-------------------------------------------------|


Important: The song above is NOT stored on the Chordie server. The original song is hosted at www.guitartabs.cc. Chordie works as a search engine and provides on-the-fly formatting. Chordie does not index songs against artists'/composers' will. To remove this song please click here.

This song is displayed as text-only. Transposing and tuning is only available for chordpro-songs.
Rate #1 of 3 versions

Jango Player

Login - add to songbook

SHARE PAGE  




You need to log in to post comments