Guitar Tabs, Chords and Lyrics
Login is temporarily disabled for some users. Do not panic. Will be back in an hour or two. DO NOT REREGISTER!!


Bullethead  Van Halen

 
 -------------------------------------------------------------------------------

BULLETHEAD - Van Halen
 
 -------------------------------------------------------------------------------

Tabbed by: Isaias Garcia (TexasFury)
Tuning: Half-step down
Intro
[B] [B] [B] [B] [E] [E] [E] [E] [B]  
 
 D#||------------------------|------------------------|-----------------------|
 A#||--17b--------17b--------|--17b--------17~--------|-----------------------|
 F#||------------------------|------------------------|--7--5--L--7--5--------|
 C#||------------------------|------------------------|--7--5--L--7--5--------|
 G#||------------------------|------------------------|--5--3--L--5--3--------|
 D#||------------------------|------------------------|-----------------------|

PM PM PM PM PM PM PM PM PM PM
[E] [E] [E] [E] [E] [E] [E] [E] [E] [E] [E] [E] [B] [E] [E] [E] [E] [E] [E] [E] [E]  
 
 ---------------------------|-----------------------|---------------------------|
 ---------------------------|-----------------------|---------------------------|
 --L------------------------|-----------------------|---------------------------|
 --L------------------------|-----2--L-----2--------|--L------------------------|
 --L--3--3--3--3--3---------|--3--0--L--3--0--------|--L--0--0--0--0--0---------|
 --------------------3p--0--|-----------------------|--------------------3p--0--|

PM PM PM PM PM
[E] [E] [E] [E] [B] [E] [E] [E] [E] [E] [E] [E] [E] [E] [E] [E] [E] [B]  
 
 -----------------------|---------------------------|-----------------------|
 -----------------------|---------------------------|-----------------------|
 --7--5--L--7--5--------|--L------------------------|-----------------------|
 --7--5--L--7--5--------|--L------------------------|-----2--L-----2--------|
 --5--3--L--5--3--------|--L--3--3--3--3--3---------|--3--0--L--3--0--------|
 -----------------------|--------------------3p--0--|-----------------------|

Verse 1
PM PM PM PM PM PM PM PM PM
Q E E E E E E E E E E H E E E E E E E E
 
 --------------------------||-----------------------|---------------------------|
 --------------------------||-----------------------|---------------------------|
 --------------------------||--7--5--L--7--5--------|--L------------------------|
 --L-----------------------||--7--5--L--7--5--------|--L------------------------|
 --L----0--0--0--0---------||--5--3--L--5--3--------|--L--3--3--3--3--3---------|
 -------------------3p--0--||-----------------------|--------------------3p--0--|

PM PM PM PM PM
[E] [E] [E] [E] [B] [E] [E] [E] [E] [E] [E] [E] [E] [E] [E] [E] [E] [B]  
 
 -----------------------|---------------------------|-----------------------|
 -----------------------|---------------------------|-----------------------|
 -----------------------|---------------------------|--7--5--L--7--5--------|
 -----2--L-----2--------|--L------------------------|--7--5--L--7--5--------|
 --3--0--L--3--0--------|--L--0--0--0--0--0---------|--5--3--L--5--3--------|
 -----------------------|--------------------3p--0--|-----------------------|

pick scrape
PM PM PM PM PM
E E E E E E E E E E E E H H Q Q
 
 ---------------------------|-----------------------|------------------------||
 ---------------------------|-----------------------|--------------9----8----||
 --L------------------------|-----------------------|--------------9----8----||
 --L------------------------|-----2--L-----2--------|---x\---------9----8----||
 --L--3--3--3--3--3---------|--3--0--L--3--0--------|---x\---------7----6----||
 --------------------3p--0--|-----------------------|------------------------||

Chorus 1
E E E E E E E E E E E E Q Q E E E E E E E E
 
 --------------------------|------------------------|--------------------------|
 --------------------------|--------------6----5----|--------------------------|
 --8--7-----7-----5--7-----|--------------6----5----|--------------------------|
 --8--7-----7-----5--7--x--|--x--x--x--x--6----5----|-----2-----2--------2--x--|
 --6--5-----5-----3--5--x--|--x--x--x--x--4----3----|--3--0-----0--------0--x--|
 --------------------------|------------------------|-----------------3--------|

E E E E Q Q E E E E E E E E E E E E Q Q
 
 ------------------------|--------------------------|------------------------|
 --------------9----8----|--------------------------|--------------6----5----|
 --------------9----8----|--8--7-----7-----5--7-----|--------------6----5----|
 --x--x--x--x--9----8----|--8--7-----7-----5--7--x--|--x--x--x--x--6----5----|
 --x--x--x--x--7----6----|--6--5-----5-----3--5--x--|--x--x--x--x--4----3----|
 ------------------------|--------------------------|------------------------|

pick scrape
E E E E E E Q Q Q Q Q
 
 -------------------------|-----------------------------|
 -------------------------|-------------------9----8----|
 -------------------------|-------------------9----8----|
 -----2--L--2--L-----2----|--L-----x\---------9----8----|
 --3--0--L--0--L-----0----|--L-----x\---------7----6----|
 -----------------3-------|-----------------------------|

pick scrape
E E E E E E Q H Q E E
 
 -------------------------|-----------------------------|
 --------------------7----|--L--------------------------|
 --8--7--L--7-----5--7----|--L--------------------------|
 --8--7--L--7-----5--7----|--L---------x\---------------|
 --6--5--L--5-----3--5----|--L---------x\---------------|
 --------------------5----|--L--------------------0--3--|

Q E E E E Q E E H E E Q E E E E Q
 
 ------------------------|------------------------|------------------------|
 ------------------------|------------------------|------------------------|
 ------------------------|--5--4--L~--------------|------------------------|
 ----------------4--3----|------------------------|----------------4--3----|
 -------3--2--L----------|------------------------|-------3--2--L----------|
 --1---------------------|------------------0--3--|--1---------------------|

Verse 2
PM PM PM PM PM
E E Q H E E E E H E E E E E E E E
 
 ----------------------||-----------------------|---------------------------|
 ----------------------||-----------------------|---------------------------|
 --5--4----------------||--7--5--L--7--5--------|--L------------------------|
 ----------------------||--7--5--L--7--5--------|--L------------------------|
 ----------------------||--5--3--L--5--3--------|--L--3--3--3--3--3---------|
 ----------------------||-----------------------|--------------------3p--0--|

PM PM PM PM PM
[E] [E] [E] [E] [B] [E] [E] [E] [E] [E] [E] [E] [E] [E] [E] [E] [E] [B]  
 
 -----------------------|---------------------------|-----------------------|
 -----------------------|---------------------------|-----------------------|
 -----------------------|---------------------------|--7--5--L--7--5--------|
 -----2--L-----2--------|--L------------------------|--7--5--L--7--5--------|
 --3--0--L--3--0--------|--L--0--0--0--0--0---------|--5--3--L--5--3--------|
 -----------------------|--------------------3p--0--|-----------------------|

PM PM PM PM PM PM PM PM PM PM
[E] [E] [E] [E] [E] [E] [E] [E] [E] [E] [E] [E] [B] [E] [E] [E] [E] [E] [E] [E] [E]  
 
 ---------------------------|-----------------------|---------------------------|
 ---------------------------|-----------------------|---------------------------|
 --L------------------------|-----------------------|---------------------------|
 --L------------------------|-----2--L-----2--------|--L------------------------|
 --L--3--3--3--3--3---------|--3--0--L--3--0--------|--L--0--0--0--0--0---------|
 --------------------3p--0--|-----------------------|--------------------3p--0--|

PM PM PM PM PM
[E] [E] [E] [E] [B] [E] [E] [E] [E] [E] [E] [E] [E] [E] [E] [E] [E] [B]  
 
 -----------------------|---------------------------|-----------------------|
 -----------------------|---------------------------|-----------------------|
 --7--5--L--7--5--------|--L------------------------|-----------------------|
 --7--5--L--7--5--------|--L------------------------|-----2--L-----2--------|
 --5--3--L--5--3--------|--L--3--3--3--3--3---------|--3--0--L--3--0--------|
 -----------------------|--------------------3p--0--|-----------------------|

PM PM PM PM PM PM PM PM PM PM
[E] [E] [E] [E] [E] [E] [E] [E] [E] [E] [E] [E] [B] [E] [E] [E] [E] [E] [E] [E] [E]  
 
 ---------------------------|-----------------------|---------------------------|
 ---------------------------|-----------------------|---------------------------|
 ---------------------------|--7--5--L--7--5--------|--L------------------------|
 --L------------------------|--7--5--L--7--5--------|--L------------------------|
 --L--0--0--0--0--0---------|--5--3--L--5--3--------|--L--3--3--3--3--3---------|
 --------------------3p--0--|-----------------------|--------------------3p--0--|

pick scrape Chorus 2
E E E E H H Q Q E E E E E E E E
 
 -----------------------|------------------------||--------------------------|
 -----------------------|--------------9----8----||--------------------------|
 -----------------------|--------------9----8----||--8--7-----7-----5--7-----|
 -----2--L-----2--------|---x\---------9----8----||--8--7-----7-----5--7--x--|
 --3--0--L--3--0--------|---x\---------7----6----||--6--5-----5-----3--5--x--|
 -----------------------|------------------------||--------------------------|

E E E E Q Q E E E E E E E E E E E E Q Q
 
 ------------------------|--------------------------|------------------------|
 --------------6----5----|--------------------------|--------------9----8----|
 --------------6----5----|--------------------------|--------------9----8----|
 --x--x--x--x--6----5----|-----2-----2--------2--x--|--x--x--x--x--9----8----|
 --x--x--x--x--4----3----|--3--0-----0--------0--x--|--x--x--x--x--7----6----|
 ------------------------|-----------------3--------|------------------------|

E E E E E E E E E E E E Q Q E E E E H
 
 --------------------------|------------------------|-----------------------|
 --------------------------|--------------6----5----|-----------------------|
 --8--7-----7-----5--7-----|--------------6----5----|-----------2--L--------|
 --8--7-----7-----5--7--x--|--x--x--x--x--6----5----|-----2--L--2--L--------|
 --6--5-----5-----3--5--x--|--x--x--x--x--4----3----|--3--0--L--0--L--------|
 --------------------------|------------------------|-----------------------|

Q Q Q Q E E E E E E Q
 
 ------------------------|-------------------------|
 --------------9----8----|--------------------7----|
 --L-----------9----8----|--8--7--L--7-----5--7----|
 --L-----x\----9----8----|--8--7--L--7-----5--7----|
 --L-----x\----7----6----|--6--5--L--5-----3--5----|
 ------------------------|--------------------5----|

pick scrape
H Q E E Q E E E E Q E E H E E
 
 -----------------------------|------------------------|------------------------|
 --L--------------------------|------------------------|------------------------|
 --L--------------------------|------------------------|--5--4--L~--------------|
 --L---------x\---------------|----------------4--3----|------------------------|
 --L---------x\---------------|-------3--2--L----------|------------------------|
 --L--------------------0--3--|--1---------------------|------------------0--3--|

Bridge
Q E E E E Q E E Q H H H
 
 ------------------------|----------------------||-----------0--------|
 ------------------------|----------------------||-----------0--------|
 ------------------------|--5--4----------------||--------------------|
 ----------------4--3----|----------------------||--------------------|
 -------3--2--L----------|----------------------||--2-----------------|
 --1---------------------|----------------------||--0-----------------|

PM PM \4
Q E E E E Q H H H H
 
 --L---------------------|----------------------|--------------------|
 --L---------------------|----------------------|--------------------|
 ------------------------|-----------9br--------|--L--------L--------|
 -------------------3----|----------------------|--------------------|
 ----------------3-------|--2-------------------|--------------------|
 -------0--0--1----------|--0-------------------|--------------------|

PM PM
H H Q E E E E Q W
 
 -----------0--------|--L---------------------|-------------------|
 -----------0--------|--L---------------------|-------------------|
 --------------------|------------------------|-------------------|
 --------------------|-------------------3----|-------------------|
 --2-----------------|----------------3-------|--2----------------|
 --0-----------------|-------0--0--1----------|--0----------------|

T T T T
 
 |---3---| |---3---| 

E E E E E E S S S S S S E H H
 
 ------------------------------------------------|-----------0--------|
 ------------------------------------------------|-----------0--------|
 --14p--9--12p--9p--7h--9--14p-9-12p-9p-7h-9p-7--|--------------------|
 ------------------------------------------------|--------------------|
 ------------------------------------------------|--2-----------------|
 ------------------------------------------------|--0-----------------|

PM PM
Q E E E E Q
 
 --L---------------------|
 --L---------------------|
 ------------------------|
 -------------------3----|
 ----------------3-------|
 -------0--0--1----------|

palm harmonics
NH NH NH NH NH NH NH NH NH NH NH
 
 |---------3---------| |----3----| |----3----| |----3----

Q Q S S S S S S S S S S S
 
 --------------------------------------------------------------------------------
 --------------------------------------------------------------------------------
 --------0-----------------------------------------------------------------------
 -------(0)----4p-----------2p-0h-4p-2p-0-4p-2p-0h-4p-2p-
 --2-----------------------------------------------------------------------------
 --0-----------------------------------------------------------------------------

NH NH NH NH NH NH NH NH NH NH NH NH NH NH NH NH
 
 |----3----| |----3----| |----3----| |----3----| |----3----| |--

S S S S S S S S S S S S S S S S
 
 --------------------------------------------------------------------------------
 --------------------------------------------------------------------------------
 --------------------------------------------------------------------------------
 --4p-2p-0h-4p-2p-0-4p-2p-0h-4p-2p-0-4p-2p-0h-4p-
 --------------------------------------------------------------------------------
 --------------------------------------------------------------------------------

\4
H H Q Q E E Q Q Q H
 
 -----------0--------|--L--------------------|---------------------|
 -----------0--------|--L--------------------|---------------------|
 --------------------|-----------------------|---------------------|
 --------------------|------------------3----|------------0--------|
 --2-----------------|---------------3-------|--2----0-------------|
 --0-----------------|-------0----1----------|--0------------------|

Guitar Solo
H [/3]Q E E Q. E Q Q
 
 -----------------------||-----------------------------|
 --------------------5--||---8--------8----L-----8-----|
 ----------------7b-----||--10b------10b---L----10b----|
 --L--------0-----------||-----------------------------|
 -----------------------||-----------------------------|
 -----------------------||-----------------------------|

H E E Q Q. E E E Q
 
 ---------------------------|------------------------------|
 ---L-----------L--5---L----|-----------13---L------10~----|
 ---Lpb---------L--7b--L----|--12b--------------12---------|
 ---------------------------|------------------------------|
 ---------------------------|------------------------------|
 ---------------------------|------------------------------|

[B] [E] [E] [E] [E] [E] [E] [E] [E] [E] [E] [E] [E]  
 
 ---------------------------------|---------------------------------17--|
 ---L~---------L\-----------------|-------17--17--20p--17-------17------|
 -------------------------17--19--|--19b-------------------19b----------|
 ------------------14g19----------|-------------------------------------|
 ---------------------------------|-------------------------------------|
 ---------------------------------|-------------------------------------|
 |----3----| 

E E E E Q. E E E E E Q Q Q
 
 --19--20--17------20b-------L\--|-------------------------------|
 --------------17----------------|-------------------------------|
 --------------------------------|--7p--5--7p--5--8----7----5----|
 --------------------------------|-------------------------------|
 --------------------------------|-------------------------------|
 --------------------------------|-------------------------------|

H H Q. E Q Q
 
 -----------------------|---------------------------|
 -----------------------|---8-------5---L----10-----|
 ------------7b~--------|--10b------7b--L----12b----|
 --7~-------------------|---------------------------|
 -----------------------|---------------------------|
 -----------------------|---------------------------|

E E Q Q Q E E Q E E Q
 
 -------------------------------|------17--20b----17------------|
 ---L--13----L----15-----17-----|--17-----------------17--------|
 ---L--15b---L----17b----19b----|-------------------------19----|
 -------------------------------|-------------------------------|
 -------------------------------|-------------------------------|
 -------------------------------|-------------------------------|

H Q E E Q E E E E Q E E H E E
 
 --------------------------|------------------------|------------------------|
 --------------------------|------------------------|------------------------|
 --19~---------------------|------------------------|--5--4--L~--------------|
 --------------------------|----------------4--3----|------------------------|
 --------------------------|-------3--2--L----------|------------------------|
 -------------12\----0--3--|--1---------------------|------------------3--5--|

Verse 3
Q E E E E Q E E Q H E E E E H
 
 ------------------------|----------------------||-----------------------|
 ------------------------|----------------------||-----------------------|
 ------------------------|--7--6----------------||--7--5--L--7--5--------|
 ----------------6--5----|----------------------||--7--5--L--7--5--------|
 -------5--4--L----------|----------------------||--5--3--L--5--3--------|
 --3---------------------|----------------------||-----------------------|

PM PM PM PM PM PM PM PM PM PM
[E] [E] [E] [E] [E] [E] [E] [E] [E] [E] [E] [E] [B] [E] [E] [E] [E] [E] [E] [E] [E]  
 
 ---------------------------|-----------------------|---------------------------|
 ---------------------------|-----------------------|---------------------------|
 --L------------------------|-----------------------|---------------------------|
 --L------------------------|-----2--L-----2--------|--L------------------------|
 --L--3--3--3--3--3---------|--3--0--L--3--0--------|--L--0--0--0--0--0---------|
 --------------------3p--0--|-----------------------|--------------------3p--0--|

PM PM PM PM PM
[E] [E] [E] [E] [B] [E] [E] [E] [E] [E] [E] [E] [E] [E] [E] [E] [E] [B]  
 
 -----------------------|---------------------------|-----------------------|
 -----------------------|---------------------------|-----------------------|
 --7--5--L--7--5--------|--L------------------------|-----------------------|
 --7--5--L--7--5--------|--L------------------------|-----2--L-----2--------|
 --5--3--L--5--3--------|--L--3--3--3--3--3---------|--3--0--L--3--0--------|
 -----------------------|--------------------3p--0--|-----------------------|

PM PM PM PM PM PM PM PM PM PM
[E] [E] [E] [E] [E] [E] [E] [E] [E] [E] [E] [E] [B] [E] [E] [E] [E] [E] [E] [E] [E]  
 
 ---------------------------|-----------------------|---------------------------|
 ---------------------------|-----------------------|---------------------------|
 ---------------------------|--7--5--L--7--5--------|--L------------------------|
 --L------------------------|--7--5--L--7--5--------|--L------------------------|
 --L--0--0--0--0--0---------|--5--3--L--5--3--------|--L--3--3--3--3--3---------|
 --------------------3p--0--|-----------------------|--------------------3p--0--|

PM PM PM PM PM
[E] [E] [E] [E] [B] [E] [E] [E] [E] [E] [E] [E] [E] [E] [E] [E] [E] [B]  
 
 -----------------------|---------------------------|-----------------------|
 -----------------------|---------------------------|-----------------------|
 -----------------------|---------------------------|--7--5--L--7--5--------|
 -----2--L-----2--------|--L------------------------|--7--5--L--7--5--------|
 --3--0--L--3--0--------|--L--0--0--0--0--0---------|--5--3--L--5--3--------|
 -----------------------|--------------------3p--0--|-----------------------|

pick scrape
PM PM PM PM PM
E E E E E E E E E E E E H H Q Q
 
 ---------------------------|-----------------------|------------------------||
 ---------------------------|-----------------------|--------------9----8----||
 --L------------------------|-----------------------|--------------9----8----||
 --L------------------------|-----2--L-----2--------|---x\---------9----8----||
 --L--3--3--3--3--3---------|--3--0--L--3--0--------|---x\---------7----6----||
 --------------------3p--0--|-----------------------|------------------------||

Chorus 3
E E E E E E E E E E E E Q Q E E E E E E E E
 
 --------------------------|------------------------|--------------------------|
 --------------------------|--------------6----5----|--------------------------|
 --8--7-----7-----5--7-----|--------------6----5----|--------------------------|
 --8--7-----7-----5--7--x--|--x--x--x--x--6----5----|-----2-----2--------2--x--|
 --6--5-----5-----3--5--x--|--x--x--x--x--4----3----|--3--0-----0--------0--x--|
 --------------------------|------------------------|-----------------3--------|

E E E E Q Q E E E E E E E E E E E E Q Q
 
 ------------------------|--------------------------|------------------------|
 --------------9----8----|--------------------------|--------------6----5----|
 --------------9----8----|--8--7-----7-----5--7-----|--------------6----5----|
 --x--x--x--x--9----8----|--8--7-----7-----5--7--x--|--x--x--x--x--6----5----|
 --x--x--x--x--7----6----|--6--5-----5-----3--5--x--|--x--x--x--x--4----3----|
 ------------------------|--------------------------|------------------------|

pick scrape
E E E E Q Q Q Q Q Q
 
 ------------------------|-----------------------------|
 ------------------------|-------------------9----8----|
 ------------------------|-------------------9----8----|
 -----2--L--2--L----2----|--L-----x\---------9----8----|
 --3--0--L--0--L----0----|--L-----x\---------7----6----|
 ------------------------|-----------------------------|

E E E E E E Q H Q E E Q E E E E Q
 
 -------------------------|--------------------------|------------------------|
 --------------------7----|--L-----------------------|------------------------|
 --8--7--L--7-----5--7----|--L-----------------------|------------------------|
 --8--7--L--7-----5--7----|--L-----------------------|----------------4--3----|
 --6--5--L--5-----3--5----|--L-----------------------|-------3--2--L----------|
 --------------------5----|--L--------7g12\----0--3--|--1---------------------|

E E H E E Q E E E E Q
 
 ------------------------|------------------------||
 ------------------------|------------------------||
 --5--4--L~--------------|------------------------||
 ------------------------|-------------------2----||
 ------------------------|-------3--2--L-----2----||
 ------------------0--3--|--1-------------3--0----||

Duration Legend
 
 ---------------

W - whole
H - half
Q - quarter
E - 8th
S - 16th
. - note dotted
|-n-| - n-tuplets
Tablature Legend
 
 ----------------

L - tied note
x - dead note
g - grace note
(n) - ghost note
> - accentuded note
NH - natural harmonic
h - hammer on
p - pull off
b - bend
br - bendRelease
pb - preBend
pbr - preBendRelease
brb - bendReleaseBend
\n/ - tremolo bar dip
\n - tremolo bar dive
-/n - tremolo bar Release up
/n - tremolo bar return
-\n - tremolo bar Release down
S - shift slide
s - legato slide
/ - slide into from below or out of upwards
\ - slide into from above or out of downwards
~ - vibrato
T - tapping
Get my other tabs for Guitar Pro, Powertab, guitar/bass text and chords at
http://profile.ultimate-guitar.com/TexasFury/contributions/

Important: The song above is NOT stored on the Chordie server. The original song is hosted at www.guitartabs.cc. Chordie works as a search engine and provides on-the-fly formatting. Chordie does not index songs against artists'/composers' will. To remove this song please click here.

Text color:
Chord color:
Chord grids: 
Font size:    
Page size: 

B E
Rate #1 of 3 versions

Jango Player

Login - add to songbook

SHARE PAGE  



You need to log in to post comments