Guitar Tabs, Chords and Lyrics
Server problems seems to be fixed. Chordie has been experiencing problems with songs disappearing. These issues now seems to be fixed, but still verifying the fix. If you find anything strange, please email admin@chordie.com.


Cathedral  Van Halen

Author/Artist: Van Halen
Title: Cathedral
Album: Diver Down
Transcribed by: Kelly Levine
Email: acadrman@msn.com
I use to play this in the late 80's, I used a Roland 1000 delay
and a Boss choirs pedal. The trick is to hammer the note with
the volume control off, then turn it up then down. On the
Delay, have the feed back about 50% with the Choirs. A word
of WARNING!!!! When I was learning this I froze 2 volume
controls. After the 4th I stopped playing this song. I'am
in a Christain rock band and when you play this it turn heads.
Have fun.
 
 -0----------1---------|-0-------------------2--------|-0---------1------------
 -0----------1---------|-0-------------------5--------|-0---------1------------
 -0----------2---------|-0---------5---------4--------|-0---------2------------
 -2----------3---------|-2---------5---------4--------|-2---------3------------
 -3----------3---------|-3---------3---------2--------|-3---------3------------
 -3--------------------|-3----------------------------|-3----------------------

[CM7/G] [F/C] [CM7/G] [C] [Bsus4] [CM7/G] [F/C] 
 
 -0----------------------|-----------------------------------------------------
 -0----------------------|-----------4-----4-----------------------------------
 -0----------5---------4-|-------4-----4-4-----4-------------------------------
 -2----------5---------4-|---4-----2---------4-----4---------------------------
 -3----------3---------2-|-2---2-----------------2---4-2-----------------------
 -3----------------------|-----------------------------------------------------

[CM7/G] [C] [B] [B]  
 
 -------------3-----3-------------|---------------7-----7----------------------
 ---------4-----4-4-----4---------|-----------8-----8-8-----8------------------
 -----3-----3---------3-----3-----|------7------7---------7------7-------------
 -----------------------------3---|--------------------------------7-----------
 -6-4---6-----------------6-----6-|-10-8---10-----------------10-----10--------
 ---------------------------------|--------------------------------------------

[Eb] [G]  
 
 -------------------11-------11------------------------------------------------
 -------------12-------12-12-------12------------------------------------------
 -------11-------11-------------11-------11------------------------------------
 -------------------------------------------12---------------------------------
 -14-12----14-------------------------14-------14------------------------------
 ------------------------------------------------------------------------------

[B]  
 
 ---------------7-----7-----|--------------------------------------------------
 -----------8-----8-8-----8-|-------------7-----7------------------------------
 ------7------7---------7---|---7-----7-----7-7-----7--------------------------
 ----7----------------------|-----7-----7---------7----------------------------
 -10-----10-----------------|-5-----5------------------------------------------
 ---------------------------|--------------------------------------------------

[G] [D]  
 
 -------------5-----5-----|----------------------------------------------------
 ---------6-----6-6-----6-|-------------5-----5--------------------------------
 -----5-----5---------5---|---5-----5-----5-5-----5----------------------------
 ---7---------------------|-----5-----5---------5------------------------------
 -8-----8-----------------|-3-----3--------------------------------------------
 -------------------------|----------------------------------------------------

[F] [C]  
 
 -----------------------------------------|------------------------------------
 -3-----3-----3-----3---------------------|-------------4-----4----------------
 -----4-----4-----4-----4-----------------|---------4-----4-4-----4------------
 ---5-----5-----5-----5---3-5-5-3---5-----|-----4-----2---------4-----4--------
 ---------------------------------3---5-3-|-2-5---2-----------------2---4-2----
 -----------------------------------------|------------------------------------

[G] [Bm] [B] 
 
 -------------3-----3-------------|---------------7-----7----------------------
 ---------4-----4-4-----4---------|-----------8-----8-8-----8------------------
 -----3-----3---------3-----3-----|------7------7---------7------7-------------
 -----------------------------3---|--------------------------------7-----------
 -6-4---6-----------------6-----6-|-10-8---10-----------------10-----10--------
 ---------------------------------|--------------------------------------------

[Eb] [G]  
 
 -------------------11-------11-------|-------------------12-------12----------
 -------------12-------12-12-------12-|-------------13-------13-13-------13----
 -------11-------11-------------11----|-------12-------12-------------12-------
 -------------------------------------|----14----------------------------------
 -14-12----14-------------------------|-14-------14----------------------------
 -------------------------------------|----------------------------------------

[B] [C] 
 
 -------------------14-------14-------|-------------------16-------16----------
 -------------15-------15-15-------15-|-------------17-------17-17-------17----
 -------14-------14-------------14----|-------16-------16-------------16-------
 ----17-------------------------------|----19----------------------------------
 -17-------17-------------------------|-19-------19----------------------------
 -------------------------------------|----------------------------------------

[D] [E] 
 
 -16-------16-|----------|-14-12----12-14-------12-----------------------------
 -------17----|----17----|-------15-------15-13----15-13-12-15-13-12----13-12--
 ----16-------|-------16-|-------------------------------------------14--------
 -------------|-16-------|-----------------------------------------------------
 -------------|----------|-----------------------------------------------------
 -------------|----------|-----------------------------------------------------

(repeat 9x)
 
 ------------------------------------------------------------------------------
 -------12---------------------------------------------------------------------
 -14-12----14-12-11-14-12-11----12-11-------11---------------------------------
 ----------------------------14-------14-12----14-12----14-12-------12---------
 ----------------------------------------------------15-------15-14----15-14---
 ------------------------------------------------------------------------------
 ----------------|-----------------------------------|-------------------------
 ----------------|-----------------------------------|-------------------------
 ----------------|-----------------7---7-------------|-------------------------
 ----------------|-------------------7---5-7-4-5---4-|-------------------------
 -12-15-14-12-12-|-5-7-7-5-5-7-7-5---------------7---|-5-7-7-5-5-7-7-5-5-7-----
 ----------------|-----------------------------------|-------------------------

(: 1 2 3
 
 ---------|--------------------------------------------------------------------
 ---------|--------------------------------------------------------------------
 ---------|--------------------------------------------------------------------
 ---------|--------------------------------------------------------------------
 ---5-----|-5-7-7-5-5-7-7-5-5-7-7-5-5-7-7-5-5-7-7-5-5-7-7-5-5-7-7-5-5-7-7-5-5--
 -3---3-2-|--------------------------------------------------------------------

:) 4

Important: The song above is NOT stored on the Chordie server. The original song is hosted at www.guitartabs.cc. Chordie works as a search engine and provides on-the-fly formatting. Chordie does not index songs against artists'/composers' will. To remove this song please click here.

Text color:
Chord color:
Chord grids: 
Font size:    
Page size: 

B Bm Bsus4 C Cm7/G D E Eb F F/C G
Rate #2 of 9 versions

Jango Player

Login - add to songbook

SHARE PAGE  



You need to log in to post comments