Guitar Tabs, Chords and Lyrics
Server problems seems to be fixed. Chordie has been experiencing problems with songs disappearing. These issues now seems to be fixed, but still verifying the fix. If you find anything strange, please email admin@chordie.com.


Glad Tidings  Van Morrison

"Moondance", 1970
 
 -----------------

G: 320003
C: 032010
D: 000232
G7: 320001
Em: 022000
[bass intro]:
 
 E-||--------------|--------------|--------------|--------------|
 B-||--------------|--------------|--------------|--------------|
 G-||---0-0---0-0--|---0-0---0-0--|---0-0---0-0--|---0-0---0-0--|
 D-||-0------------|-0------------|-0------------|-0------------|
 A-||--------------|--------------|--------------|--------------|
 E-||--------------|--------------|--------------|--------------|

And they'll lay you down low in the easy
And the lips that you kiss will say Christmas.
And the miles that you traveled the distance
So believe no lies,
 
 E-||--------------|
 B-||--------------|
 G-||--------------|
 D-||---------0----|
 A-||-----0/2---3--|
 E-||-3------------|

Dry your eyes
 
 E-||--------------|
 B-||--------------|
 G-||--------------|
 D-||---------0----|
 A-||-----0/2---3--|
 E-||-3------------|

And realize
 
 E-||--------------|
 B-||-----------3-3|
 G-||-----------2-3|
 D-||---------0----|
 A-||-----0/2------|
 E-||-3------------|

That surpr[G]ise
[Cborus]:
[G] La, la, la, la
[C] La, la, la, la
[G] La, la, la, la
[D] La, la, la, la (x2)
[G] [C] [G] [C]  
And the b[G]usinessmen will shake h[C]ands and talk in n[G]umbers[C]
And the pr[G]incess will wake [C]up from her sl[G]umber[C]
Then all the kn[G]ights will step forth [C] with their [G]arm bands[C]
And ev'ry str[G]anger you meet in the str[C]eet will make dem[G]ands[C]
So believe no l[G]ies,[C]
Then dry your [G]eyes[C]
And real[G]ize[D] [D]
That surpr[G]ise
[Cborus] 
[G] [C] [G] [G7]  
[Bridge]:
And we'll s[C]end you glad t[D]idings from New York[G]
[C]Open up your e[D]yes so you may se[G]e
[C]Ask you not to re[D]ad between the li[G]nes[Em]
[C]Hope that you will co[D]me in right on ti[G]me
[G] [C] [G] [C]  
And they'll t[G]alk to you wh[C]ile you're in tr[G]ances[C]
And you'll v[G]isualize not t[C]aking any ch[G]ances[C]
But meet them h[G]alfway with l[C]ove, peace and persu[G]asion[C]
And exp[G]ect them to r[C]ise for the occ[G]asion[C]
Don't it gratif[G]y[C]
When you see it material[G]ize[C]
Right in front of your [G]eyes[D] [D]
That surpr[G]ise
[Cborus] 
[G] [C] [G] [G7]  
[Bridge] 
[G] [C] [G] [C]  
And they'll l[G]ay you down l[C]ow and e[G]asy[G]
 



 


Important: The song above is NOT stored on the Chordie server. The original song is hosted at www.guitartabs.cc. Chordie works as a search engine and provides on-the-fly formatting. Chordie does not index songs against artists'/composers' will. To remove this song please click here.

Text color:
Chord color:
Chord grids: 
Font size:    
Page size: 

C D Em G G7
Rate #0 of 5 versions

Jango Player

Login - add to songbook

SHARE PAGE  




You need to log in to post comments