Guitar Tabs, Chords and Lyrics
Update 25:10. 13:00. Site is back up running again. Songbooks are recovered. Woring on getting search back up..


Into the Mystic  Van Morrison

From the album MOONDANCE
Tuning: Open D D-A-D-F#-A-D
Capo 1st fret (chords and tabs relative to capo)
 
 D-----0-0--s--0---0---0-0-0- (you can mix it up by playing the
 A-----0-0--t--0---0---0-0-0- repeated 5p4's on the high D string)
 F#----0-0--r--0---0---0-0-0-
 D-----2h4--u--5p4-5p4-5p4-4- repeat 5 more times
 A-----0-0--m--0---0---0-0-0-
 D-----0-0-----0---0---0-0-0-

VERSE
[E]We were born before the wind
Also younger than the sun
B (bar the 7th fret) E (open)
Eyre the bonnie boat was won, as we sailed into the mystic
[E]Hark now hear the sailor's cry
Smell the sea and feel the sky
[B]Let your soul and spirit fly into th[E]e mystic
( Tab from: http://www.guitartabs.cc/tabs/v/van_morrison/into_the_mystic_tab.html )
BRIDGE
[G#] [A] [B] [B] [A] [E]  
 
 D-----4---5---7---7---------5------------------------0---
 A----4---5---7----7---------5------------------------0---
 F#--4---5---7-----7---------5------------------------0---
 D--sweep-these----7---------5------------------------0---
 A-----------------7---------5------------------------0---
 D--4---5---7------7---------5------------------------0---

when that fog horn blows, i will be coming home
[G#] [A] [B] when that f[A]og horn blows, i wanna [B]hear itů i don't have to fear it! and
(verse)
[E]Iiiiii wanna rock your gypsy soul
way back to the days of old
[B]and magnificently we will fold, into the [E]mystic
SAX SOLO
 
 D--0-0--0-----0---0
 A--9-9--7p5p0-0-2s5
 F#-0-0--0-----0---0 x2
 D--0-0--0-----0---0
 A--0-0--0-----0---0
 D--0-0--0-----0---0
 D--------7---------5--
 A--------7---------5--
 F#-8-7---7---8-7---5--
 D------9-7-------7-5--
 A--------7---------5--
 D--------7---------5--
 D--0-0--0-----0---0
 A--9-9--7p5p0-0-2s5
 F#-0-0--0-----0---0
 D--0-0--0-----0---0
 A--0-0--0-----0---0
 D--0-0--0-----0---0

Back to the BRIDGE
Repeat 2nd VERSE
Another SAX SOLO to fade.
By Scott Nadeau

Important: The song above is NOT stored on the Chordie server. The original song is hosted at www.guitartabs.cc. Chordie works as a search engine and provides on-the-fly formatting. Chordie does not index songs against artists'/composers' will. To remove this song please click here.

Text color:
Chord color:
Chord grids: 
Font size:    
Page size: 

A B E G#
Rate #3 of 17 versions

Login - add to songbook

SHARE PAGE  



You need to log in to post comments