Guitar Tabs, Chords and Lyrics
Server problems seems to be fixed. Chordie has been experiencing problems with songs disappearing. These issues now seems to be fixed, but still verifying the fix. If you find anything strange, please email admin@chordie.com.


Club Kung Fu  Vanilla Ninja

Tabbed by : Pozzire
I put chords up as a guide for timing (If needed)
Intro: C# G# C#
 
 G|----------------------------|
 D|----------------------------|
 A|-4-44-44-4-----4-44---4-4---|
 E|----------4-----------------|

Verse 1 (Play for Verse 1 and 2)
 
 G|---------------------------------|
 D|---------------------------------|
 A|--44444444444444--------4444444--|
 E|-----------------444444----------|

[C#]What's up - Come on it`s Friday evening
Can't wait to go to the party
[G#]I know a place where we all should go[C#]
[C#]Check out - Just around the corner
Best place can't be any cooler
[G#]Come along and enter to the party z[C#]one
Pre-Chorus (Each root note is played once)
 
 G|----------------|
 D|----------------|
 A|----------------|
 E|---6--1--2--4---|

[A#]No suburban angel
[F]Been in lots of danger
[F#]Once even kicked Bruce Le[G#]e
Chorus
(Part 1)
 
 G|------------------------------------------|
 D|------------------------------------------|
 A|--4444444------------------------4444444--|
 E|---------4444444--6666-2222-4444----------|

[C#]Hey you, welcome to the party
[G#]Me and girls feeling kinda naughty
[A#]Dealing with #[F#]####### fighting
[G#]Hangin' at the Club 'Kung-Fu[C#]'
Part 2 (Slightly different to 1st Part)
 
 G|-------------------------------------------------------|
 D|---------------------during----------------------------|
 A|--4444444---------already gettin--------------4444444--|
 E|---------4444444-66-888-99-66666--2222--4444-----------|

Slide up then back to A#
[C#]Chill out, 'cos you're at the party
[G#]Me and girls already gettin' started
[A#]Dealing with #[F#]####### fighting
H[G#]angin' at the Club 'Kung-F[C#]u'
Verse 2
 
 G|---------------------------------|
 D|---------------------------------|
 A|--44444444444444--------4444444--|
 E|-----------------444444----------|

[C#]Zoom this you'll always remember
What you see can`t get any better
[G#]Hottest people ever seen in whole downt[C#]own
[C#]Hear that DJ playin' a record
Best thing after Def Leppard
[G#]Jump up, we'll be rockin' up this pl[C#]ace
Pre-Chorus (Each root note is played once)
 
 G|----------------|
 D|----------------|
 A|----------------|
 E|---6--1--2--4---|

[A#]No suburban angel
[F]Been in lots of danger
[F#]Once even kicked Bruce Le[G#]e
Chorus (Play parts 1 and 2)
[C#]Hey you, welcome to the party
[G#]Me and girls feeling kinda naughty
[A#]Dealing with #[F#]####### fighting
[G#]Hangin' at the Club 'Kung-Fu[C#]'
[C#]Chill out, 'cos you're at the party
[G#]Me and girls already gettin' started
[A#]Dealing with #[F#]####### fighting
H[G#]angin' at the Club 'Kung-F[C#]u'
Interlude
[C#] [G#] [A#] [F#] [G#] [C#]  
 
 G|--------------------------------------------|
 D|--------------------------------------------|
 A|--4444444--------------------------4444444--|
 E|---------4444444--6666--2222--4444----------|

Key Change Part no bass but it goes
 
 A|--4-4-4-4---6-6-6-6-|

Chorus
Key Change
Chorus
(Part 1)
 
 G|-----------------------------------------|
 D|-----------------------------------------|
 A|--5555555-----------------------5555555--|
 E|---------5555555--7777-3333-5555---------|

[D#]Hey you, welcome to the party
[A#]Me and girls feeling kinda naughty
[C]Dealing with [G#]######## fighting
[A#]Hangin' at the Club 'Kung-Fu[D#]'
Part 2
 
 G|---------------------------------------------------------|
 D|---------------------during------------------------------|
 A|--6666666---------already gettin-------------------6666--|
 E|---------6666666-88-10-10-10-11-11-888--4444--6666-------|

Slide up then back to C
[D#]Chill out, 'cos you're at the party
[A#]Me and girls already gettin' started
[C]Dealing with [G#]######## fighting
H[A#]angin' at the Club 'Kung-Fu[D#]'
[C]Dealing with [G#]######## fighting
H[A#]angin' at the Club 'Kung-Fu[D#]'
Thats it
Any problems/ Comments email me - lil_punk_rocker182@hotmail.com

Important: The song above is NOT stored on the Chordie server. The original song is hosted at www.guitartabs.cc. Chordie works as a search engine and provides on-the-fly formatting. Chordie does not index songs against artists'/composers' will. To remove this song please click here.

Text color:
Chord color:
Chord grids: 
Font size:    
Page size: 

A# C C# D# F F# G#
Rate #1 of 3 versions

Jango Player

Login - add to songbook

SHARE PAGE  



You need to log in to post comments