Guitar Tabs, Chords and Lyrics
Major upgrade!! After one year development the new version of Chordie is now online! Please give feedback.


25  Veruca Salt

A5: 577XXX G5: 355XXX G: 55XXXX B: 99XXXX
F#5: 44XXX A: 77XXXX F: 33XXXX E: 022XXX
Intro:
[A5] [G5] [D5] [F#5] [C#5] 
 
 -----------------------------------------------------------------------
 -----------------------------------------------------------------------
 -----------------------------------------------------------------------
 -----------------------------------------------------------------------
 -----------------7---------5------5------9-----4-----4----4--4----4----
 -0-----0----0----5----0----3------5------9-----4-----4----4--4----4----
 -----------------------------------------------------------------------
 -----------------------------------------------------------------------
 -----------------------------------------------------------------------
 -----------------------------------------------------------------------
 -4---4---4---4---4---4---4---------------------------------------------
 -4---4---4---4---4---4---4---------------------------------------------

[A] I'm afra[A5]id I will ne[G5]ver[G] change,[A] [B] [F#]
[A] It's oka[A5]y I'm no[G5]t a[G]shamed[A] [B] [F#]
[A] I can sa[A5]y that my be[G5]d is[G] made[A] [B] [F#]
You can[A] bend me, [F] shape me [A5] any way you can
[A] Bend me,[F] shape me[A5] anyway you want me.
I maintain, I am not in pain,
How I try, not to place the blame
I came late to an early game
You can bend me, shape me any way X3
You can bend me, shape me any way you want me
Riff
 
 -----------------------------------------------------------------------
 -7/-8---10--------7/-8---10--------10-----9----------------------------
 -----------------------------------------------------------------------
 -----------------------------------------------------------------------
 -----------------------------------------------------------------------
 -----------------------------------------------------------------------

E (riff: G5 A5)
When I was five, I took a dive,
When I was ten, I walked again
When I was fifteen, I kept my motor clean
When I was twenty, I got plenty
When I was twenty-five
When I was twenty-five
 
 --------------------------------------13-------------------------------
 -15b-------------------------------------------------------------------
 -----------------------------------------------------------------------
 -----------------------------------------------------------------------
 --------------------------------------------------------0-------4--3---
 -----------------------------------------------------------------------
 -----------------------------------------------------------------------
 -----------------------------------------------------------------------
 -------------------------------------5-----4---5---7----5\-4---5\-4----
 -----------------------------------------------------------------------
 ---4--------4-----0--0--4-----4----------------------------------------
 -----------------------------------------------------------------------
 -----------------------------------------------------------------------
 -----------------------------------------------------------------------
 -2--4\-2---0---0----2----4--2/-4--5---4/-5/-7---7/-9----12--12--12\-11-
 -----------------------------------------------------------------------
 -----------------------------------------------------------------------
 -----------------------------------------------------------------------
 -----------------------------------------------------------------------
 -----------------------------------------------------------------------
 -----------------------------------------------15b--------15--15----14-
 ---12---14----14b----14-----14--14--------------------------------0----
 ------------------------------------0----0--0--------------------------
 -----------------------------------------------------------------------
 -----------------------------------------------------------------------
 --------------15--------------16---16---17-----17b--------------18b----
 -15--15b-15-------15---15------------------------------17b-------------
 -----------------------------------------------------------------------
 -----------------------------------------------------------------------
 -----------------------------------------------------------------------
 -----------------------------------------------------------------------
 ----------18-----19b--19------19b-------22b---22------22b----------22--
 -0--0--0-----0------------19-------19-------------0--------------------
 ------------------------------------------------------------22b--------
 -----------------------------------------------------------------------
 -----------------------------------------------------------------------
 -----------------------------------------------------------------------
 -------22----22b-------------------22b------------22--------------13---
 ----------------------------------------------------------13---13------
 -22b----------------------0--0--0--------22b-22------------------------
 -----------------------------------------------------------------------
 -----------------------------------------------------------------------
 -----------------------------------------------------------------------
 -13--14---------13-----13-----12---------------------------------------
 -------------------12--------------15b---------------------------------
 ----------14-----------------------------------------------------------
 -----------------------------------------------------------------------
 -----------------------------------------------------------------------
 -----------------------------------------------------------------------


Important: The song above is NOT stored on the Chordie server. The original song is hosted at www.guitartabs.cc. Chordie works as a search engine and provides on-the-fly formatting. Chordie does not index songs against artists'/composers' will. To remove this song please click here.

Text color:
Chord color:
Chord grids: 
Font size:    
Page size: 

A A5 B C#5 D5 F F# F#5 G G5
Rate #0 of 2 versions

Jango Player

Login - add to songbook

SHARE PAGE  




You need to log in to post comments