Guitar Tabs, Chords and Lyrics
Update 25:10. 13:00. Site is back up running again. Songbooks are recovered. Woring on getting search back up..


Autumn Shade II  The Vines

 
 -----------------------------------------------------------------------

The Vines - Autumn Shade 2
 
 -----------------------------------------------------------------------

Tabbed by: Pascal M Frenette
Email: ludohvik@msn.com
Tuning : EADGBe (Standard)
That's the best I could do for the intro/verse.
But like always, just play around that...
[C] [G] [Em] [A]  
 
 e|-------------3-(3)---0-------0------|
 b|-----1--0---------------0h2-----0h1-|
 g|-----0-----------------------2------|
 d|---2--2-----0-------2-----2---2----|
 a|-3---------2---2---2---2--0---------|
 e|---------3-------0------------------|

[C] Look through [G]me because I[Em] am a trans[A]parent[C]
Ought to [G]know me but wh[Em]y even kno[A]w yourse[C]lf
I'm beg[G]inning to nee[Em]d all that [A]I can't h[C]ave
I'm suc[G]ceeding to spe[Em]ak like I'm fuc[A]king ma[C]d[G]
( Tab from: http://www.guitartabs.cc/tabs/v/vines/autumn_shade_ii_crd.html )
[Em]Looking at the Autumn Sh[C]ad[G]e
You are white and I am grey
[Em]Looking at the Autumn Sh[C]ad[G]e, oh [Em]yeah
Look through me because I am a transparent
Ought to know me but why even know yourself
I'm beginning to need all that I can't have
I'm succeeding to speak like I'm fucking mad
Looking at the Autumn Shade
You are white and I am grey
Looking at the Autumn Shade, oh yeah
[C] [G] [Em] [A] [C] [G] [Em] [A]  
[C]Oooooh ooh [G]ooh woo-[Em]oooooh ooh [A]ooooh
Oooooh ooh ooh woo-oooooh ooh ooooh
Oooooh ooh ooh woo-oooooh ooh ooooh
La lala la la la
Oooooh ooh ooh woo-oooooh oooooh wooooooooooh
 
 -----------------------------------------------------------------------

Solo over second chorus
 
 |------------------------------------------------------|
 |------------------------------------------------------|
 |--9-9-9-9/12br11-9~~~~-7------------------------------|
 |-------------------------10-9-7-9~-12~-9~~-10~~-9~~~~-|
 |------------------------------------------------------|
 |------------------------------------------------------|
 |------------------------------------------------------|
 |------------------------------------------------------|
 |-9-9-9-9/12/14~-14-12-9~~~~-----9~~~~~~~into feedback-|
 |----------------------------7br-----------------------|
 |------------------------------------------------------|
 |------------------------------------------------------|


Important: The song above is NOT stored on the Chordie server. The original song is hosted at www.guitartabs.cc. Chordie works as a search engine and provides on-the-fly formatting. Chordie does not index songs against artists'/composers' will. To remove this song please click here.

Text color:
Chord color:
Chord grids: 
Font size:    
Page size: 

A C Em G
Rate #2 of 6 versions

Login - add to songbook

SHARE PAGE  




You need to log in to post comments