Guitar Tabs, Chords and Lyrics
Server problems seems to be fixed. Chordie has been experiencing problems with songs disappearing. These issues now seems to be fixed, but still verifying the fix. If you find anything strange, please email admin@chordie.com.


Narrow Ways  Violent Soho

 
 ----------------------------------------------------------------------------

NARROW WAYS - Violent Soho
 
 ----------------------------------------------------------------------------

Tabbed by: curse666
E-mail:
Tuning: Standard
I dunno if its correct, i don't care...
I play this with standard tuning so...here I go...woo
listen to the song to get the rhythm
Riff
 
 |-2-2-2-2-2-2-2-3-3-3-3-2-2-5-|
 |-3-3-3-3-3-3-3-3-3-3-3-3-3-3-|
 |-2-2-2-2-2-2-2-2-2-2-2-2-2-2-|
 |-0-0-0-0-0-0-0-0-0-0-0-0-0-0-|
 |-----------------------------|
 |-----------------------------|

Intro Bm Riff
[Bm]Feel my heart
Riff
Skip along the odd days
I got [Bm]1600 lies
Riff
Now I'll mind my own
[Bm]In your youth
Riff
You think about the exit days
I s[Bm]wear that I'll be there
Riff
But I won't cry for long, shut up
F#m Bm Riff
Drift along the narrow way
[F#m] She don't want you [Bm]anymore
Riff
Now you are alone
( Tab from: http://www.guitartabs.cc/tabs/v/violent_soho/narrow_ways_tab.html )
 
 |---------------------------------------------------------|
 |---------------------------------------------------------|
 |---------------------------------------------------------|
 |---4---4---4---4---4---4---4---4---4---4-5-5-5-4-2-2-2-7-|
 |-2---2---2---2---2---2---2---5---5---5---0-0-0-0-0-0-0-0-|
 |---------------------------------------------------------|

Every single night the owls will get older
Keepin' me awake, the hours go longer
[Bm]Taste the skin
Riff
Your father can remember
[Bm]The day you walked alone
Riff
You screamed at the floor, shut up
F#m Bm Riff
Drift along the narrow way
[F#m]She don't want you [Bm]anymore
Riff
Now you are alone
F#m Bm Riff
Drift along the narrow way
[F#m]I got 1600 mi[Bm]les
Riff
I wanna go home, yeah
And I'll [Bm]keep it [F#m]in my a[G]rms
And I'll [Bm]hold on [F#m]it real [G]light
[Bm]The only [F#m]time you cr[G]ied you thought it was done
[B5] [D5] [E5] [D5] [B5] [D5]  
[F#m] [Bm]Drift along the narrow way
[F#m]She don't want you [Bm]anymore
Riff
Now you are alone
[Bm]Now you are alone
Now you are alone
Now you are alone
Riff
Now you are alone
Now you are alone....
Repeat 'till end

Important: The song above is NOT stored on the Chordie server. The original song is hosted at www.guitartabs.cc. Chordie works as a search engine and provides on-the-fly formatting. Chordie does not index songs against artists'/composers' will. To remove this song please click here.

Text color:
Chord color:
Chord grids: 
Font size:    
Page size: 

B5 Bm D5 E5 F#m G
Rate #1 of 3 versions

Jango Player

Login - add to songbook

SHARE PAGE  




You need to log in to post comments