Guitar Tabs, Chords and Lyrics
Server problems seems to be fixed. Chordie has been experiencing problems with songs disappearing. These issues now seems to be fixed, but still verifying the fix. If you find anything strange, please email admin@chordie.com.


A Broken Man and the Dawn  Volbeat

Db= x-6-8-8-x-x
B = x-4-6-6-x-x
Eb= x-8-10-10-x-x
Ab= 6-8-8-x-x-x
F = 5-3-3-x-x-x
Eb= 1-3-3-x-x-x
Gb= 4-6-6-x-x-x
C = x-5-7-7-x-x
Bb= x-3-5-5-x-x
Intro:
[Db]  
Acoustic Guitar/Electric Guitar clean:
[Db]There's a man looking blank to the wall[Bb]
Older, colder and mum[Db]bling
Looking over his shou[Bb]lder
Until the break of da[Eb]wn
His eyes will not clo[Ab]se
Electric Guitar w/distortion:
[Db]All the days are the same getting d[Bb]own
At the bar and he's mumbl[Db]ing
About the war and lost one[Bb]s
Until the break of d[Eb]awn
And where are his loved o[Ab]nes
Oh baby it's [Db]oh so c[C]old in this [Bb]place
Oh maybe it's[Db] all so c[C]lose to the [Bb]bitter end
Oh maybe it a[Db]ll just bu[C]rns like a l[Bb]iving hell
I'm all al[Eb]one, and here comes the d[Ab]awn
[Db]Hearing boots walking into the [Bb]bar
Four men dragging their box[Db]es
People stare and smell trou[Bb]ble
Until the break of d[Eb]awn, the four men will [Ab]go
Oh baby it's [Db]oh so c[C]old in this [Bb]place
Oh maybe it's[Db] all so c[C]lose to the [Bb]bitter end
Oh maybe it a[Db]ll just bu[C]rns like a l[Bb]iving hell
I'm all al[Eb]one, and here comes the d[Ab]awn
 
 e-|--------------------------------------|
 B-|--------------------------------------|
 G-|--------------------------------------| x2
 D-|--5-----------------3-----------------|
 A-|--5-----------------3-----------------|
 E-|--3-5-4-3-6-5-4-3/2/1-4-4-4-4-4-4p3---|

Strum the single chords how much as in the song
And the [F]four men starts to open [Gb]every case
And people wo[F]nder
When they pull out their inst[Gb]ruments and play
 
 e-|--------------------------------------|
 B-|--------------------------------------|
 G-|--------------------------------------| x1
 D-|--5-----------------3-----------------|
 A-|--5-----------------3-----------------|
 E-|--3-5-4-3-6-5-4-3/2/1-4-4-4-4-4-4p3---|

Strum the single chords how much as in the song
De[F]ar people we are the guitar ga[Gb]ngsters
And we are here to join[F] you
And ease the pai[Gb]n you're in
Now listen[F]
[Db]Hearing boots walking into the [Bb]bar
Four men dragging their bo[Db]xes
People smile and they're roa[Bb]ring
Until the break of d[Eb]awn, a new day is b[Ab]orn
Oh baby it's [Db]oh so c[C]old in this [Bb]place
Oh maybe it's[Db] all so c[C]lose to the [Bb]bitter end
Oh maybe it a[Db]ll just bu[C]rns like a l[Bb]iving hell
I'm all al[Eb]one, and here comes the d[Ab]awn
 
 e-|--------------------------------------|
 B-|--------------------------------------|
 G-|--------------------------------------| x1
 D-|--5-----------------3-----------------|
 A-|--5-----------------3-----------------|
 E-|--3-5-4-3-6-5-4-3/2/1-4-4-4-4-4-4p3---|

Strum the single chords how much as in the song
De[F]ar people we are the guitar ga[Gb]ngsters
And we are here to join[F] you
And ease the pai[Gb]n you're in
Now listen[F]
 
 e-|--------------------------------------|
 B-|--------------------------------------|
 G-|--------------------------------------| x1
 D-|--5-----------------3-----------------|
 A-|--5-----------------3-----------------|
 E-|--3-5-4-3-6-5-4-3/2/1-4-4-4-4-4-4p3---|

Strum the single chords how much as in the song
De[F]ar ladies and gentl[Gb]emen
We thank you for your kin[F]dness
We're on the road [Gb]again, forev[F]er[Db]

Important: The song above is NOT stored on the Chordie server. The original song is hosted at www.guitartabs.cc. Chordie works as a search engine and provides on-the-fly formatting. Chordie does not index songs against artists'/composers' will. To remove this song please click here.

Text color:
Chord color:
Chord grids: 
Font size:    
Page size: 

Ab Bb C Db Eb F Gb
Rate #2 of 4 versions

Login - add to songbook

SHARE PAGE  



You need to log in to post comments