Guitar Tabs, Chords and Lyrics
Update 25:10. 13:00. Site is back up running again. Songbooks are recovered. Woring on getting search back up..


The Liftaway  WALK THE MOON

This is my first time doing tabs to a song! Yay!
(DISCLAIMER: I DON'T OWN THIS SONG)
Enjoy and rock on!
[EM7]Aaaahhhhhh, aaaaa[d#m7]hhhh
[B] [B]  
 
 e|-----------------7---7----------------------------------------|
 B|-------------------7---7---7---7------------------------------|
 G|-------------------------------8---8---8--8--8--8-------------|
 D|-------------------------------------------9--9--9--9---------|
 A|--------------------------------------------------------------|
 E|--------------------------------------------------------------|

[B]  
 
 e|------------7---6----------------------------------------------------|
 B|--------------------7---9--------------------------------------------|
 G|----------------------------8---6---8--------------------------------|
 D|--------9------------------------------------------------------------| x2
 A|---------------------------------------------------------------------|
 E|---------------------------------------------------------------------|

Oh, [(B)]Honey,
I forgi[EM7]ve you
[(EM7)]All that you've bee[B]n[d#m7]
[(d#m7)]Oh, you made it difficult[B]
[B]  
 
 e|------------7---6--------------------------------------------|
 B|--------------------7---9------------------------------------|
 G|----------------------------8---6---8------------------------|
 D|--------9----------------------------------------------------| x2
 A|-------------------------------------------------------------|
 E|-------------------------------------------------------------|

(second guitar, second time)
 
 e|--------------------------------------|
 B|--------------------------------------|
 G|--------------------------------------|
 D|--------------------6--8---9----------|
 A|------------6--7--9-------------------|
 E|------7--9----------------------------|

Oh, Ho[(B)]ney,
[(B)]I got no ultimatu[EM7]m
But I wi[EM7]sh [d#m7]you [EM7] well
[B]  
 
 e|------------7---6--------------------------------------------|
 B|--------------------7---9------------------------------------|
 G|----------------------------8---6---8------------------------|
 D|--------9----------------------------------------------------| x2
 A|-------------------------------------------------------------|
 E|-------------------------------------------------------------|

(second guitar, second time)
 
 e|--------------------------------------|
 B|--------------------------------------|
 G|--------------------------------------|
 D|--------------------6--8---9----------|
 A|------------6--7--9-------------------|
 E|------7--9----------------------------|

Oh, Da[(B)]rling,
[(B)]I've been trying to live without you[EM7]
[(EM7)]All that you've bee[B]n[d#m7]
[(d#m7)]Oh, you made it difficult[B] [d#m7]
Oh, Dar[EM7]ling,[F#m7]
[(F#m7)]I wish we could go back to Heaven[B] [d#m7]
( Tab from: http://www.guitartabs.cc/tabs/w/walk_the_moon/the_liftaway_tab.html )
[EM7] [d#m7] [EM7]  
 
 But I don't re---------member

[EM7] [d#m7] [EM7]  
 
 But I don't re---------member

But I wis[EM7]h you [d#m7] we-[EM7]---ell[F#]
Hey![B]
B (Iíve been singing ah.....(second time))
 
 e|------------7---6----------------------------------------------------|
 B|--------------------7---9--------------------------------------------|
 G|----------------------------8---6---8--------------------------------|
 D|--------9------------------------------------------------------------| x2
 A|---------------------------------------------------------------------|
 E|---------------------------------------------------------------------|

[B]I've been singing aaaahhhhh[EM7]
[EM7]Aaaaaahhhhh, aaaahhhhhh[d#m7]h
[B]  
 
 e|------------7---6----------------------------------------------------|
 B|--------------------7---9--------------------------------------------|
 G|----------------------------8---6---8--------------------------------|
 D|--------9------------------------------------------------------------| x2
 A|---------------------------------------------------------------------|
 E|---------------------------------------------------------------------|

[EM7]Aaaaahhhhhh, aaahhh[d#m7]hh
B (oooooooooaaaaaahhhhh (second time ))
 
 e|------------7---6----------------------------------------------------|
 B|--------------------7---9--------------------------------------------|
 G|----------------------------8---6---8--------------------------------|
 D|--------9------------------------------------------------------------| x2
 A|---------------------------------------------------------------------|
 E|---------------------------------------------------------------------|

Oh, Ho[(B)]ney,
[(B)]I forgi[EM7]ve you
[(EM7)]All that you've bee[B]n[d#m7]
[(d#m7)]Oh, you made it difficult[B]
B (d#m7(second time))
 
 e|------------7---6----------------------------------------------------|
 B|--------------------7---9--------------------------------------------|
 G|----------------------------8---6---8--------------------------------|
 D|--------9------------------------------------------------------------| x2
 A|---------------------------------------------------------------------|
 E|---------------------------------------------------------------------|

Oh, Dar[EM7]ling,[F#m7]
[(F#m7)]I still got no ultima[B]tum[d#m7]
[EM7] [d#m7] [EM7]  
 
 But I don't re---------member

[EM7] [d#m7] [EM7]  
 
 But I don't re---------member

[EM7] [d#m7] [EM7]  
 
 But I don't re---------member

[EM7] [d#m7] [EM7] [F#]  
 
 But I wish you we------ell

Singing, ah,
EM7 (d#m7 (second time))
Aaaaaahhhhh (hah hah! (second time))
 
 e|------------7---6----------------------------------------------------|
 B|--------------------7---9--------------------------------------------|
 G|----------------------------8---6---8--------------------------------|
 D|--------9------------------------------------------------------------| x2
 A|---------------------------------------------------------------------|
 E|---------------------------------------------------------------------|


Important: The song above is NOT stored on the Chordie server. The original song is hosted at www.guitartabs.cc. Chordie works as a search engine and provides on-the-fly formatting. Chordie does not index songs against artists'/composers' will. To remove this song please click here.

Text color:
Chord color:
Chord grids: 
Font size:    
Page size: 

B Em7 F# F#m7
Rate #1 of 1 versions

Jango Player

Login - add to songbook

SHARE PAGE  




You need to log in to post comments