Guitar Tabs, Chords and Lyrics
Server problems seems to be fixed. Chordie has been experiencing problems with songs disappearing. These issues now seems to be fixed, but still verifying the fix. If you find anything strange, please email admin@chordie.com.


Faces  Warning

================================================================================
W A R N I N G
[-] 
F A C E S
================================================================================
WATCHING FROM A DISTANCE
(c) Cyclone Records (2008)
http://www.myspace.com/warningdoom
Tune Down 2 Full Steps
[C] [F] [A#] [D#] 
Tempo = 62 BPM
Time Signature = 4/4
 
 -----------------------------

Transcribed by
PADDY MCMULLAN
stinkypoohpants@yahoo.co.uk
Version 1.0
7th July 2009
 
 -----------------------

Tablature Symbols Used:
p - Pull-Off
h - Hammer-On
(/) - Legato Slide (Blank space indicates length of slide)
\ - Slide Down to/Down From (Blank space indicates length of slide)
/ - Slide Up To/Up From (Blank space indicates length of slide)
( ) - Ghost Note/Tied Note/Implied Note
|---| - Let Notes Ring
|____[1,2,3] - Alternative Endings
================================================================================
Intro: Play once
================================================================================
 
 ||--14----11--------------||
 ||--------------11--------||
 ||------------------------||
 ||------------------------||

================================================================================
Section 1: Play 4 times
================================================================================
 
 ||--------------------|---------------------|--------------------|
 ||--------------------|---------------------|--------------------|
 ||--5--------4--------|--2------------------|--5--------4--------|
 ||--------------------|-------2--------2----|--------------------|

|----|
 
 |--------------------|--------------------|---------------------|
 |--------------------|--------------------|---------------------|
 |--0-----------------|--5--------4--------|--2------------------|
 |-------2------------|--------------------|-------2--------2----|
 |--------------------|------------------------| |
 |--------------------|---------7--4-----------|*|
 |--5--------4--------|--2 / 5-----------------|*|
 |--------------------|------------------------| |

During this section the tempo gradually increases to 68 BPM
================================================================================
Section 2: Play once
================================================================================
 
 ||--------------------|--------------------|--------------------|
 ||--4------------4----|--2------------2----|--------------------|
 ||--------------------|--------------------|--2------------2----|
 ||--------------------|--------------------|--------------------|
 |--------------------|-------------------||
 |--------------------|--5----------------||
 |--0------------0----|-------------------||
 |--------------------|-------------------||

During this section the tempo gradually increases to 74 BPM
================================================================================
Play Section 1 four times [ Tempo = 62 BPM ]
================================================================================
================================================================================
Section 3: Play twice [ Tempo = 70 BPM ]
================================================================================
 
 ||----------------------|--------------------|----------------------|
 ||----------------------|--------------------|----------------------|
 ||----------------------|--------------------|--7-------------------|
 ||--0------2--------2 / | -7--------5--------|--0--------10----9----|

|-----|
 
 |--------------------|-------------------------| |
 |--------------------|-----------------7-------|*|
 |--------------------|--------(2/4)-5-----4----|*|
 |--7--------5--------|--3----------------------| |

================================================================================
Section 4: Play twice [ Tempo = 62 BPM ]
================================================================================
|-----|
 
 ||----------------------|-------------------------|
 ||----------------------|-----------------7-------|
 ||----------------------|--------(2/4)-5-----4----|
 ||--7--------7--5--7----|--5----------------------|

|-----|
 
 |------------------------|-----------2----------| |
 |------------------------|--------------4-------|*|
 |------------------------|-----------------4----|*|
 |--7--------7----10--- \ | -2-------------------| |

================================================================================
Play Section 1 four times
================================================================================
================================================================================
Section 5: Play once
================================================================================
 
 ||--------------------|--------------------|--------------------|
 ||--4------------4----|--2------------2----|--------------------|
 ||--------------------|--------------------|--2------------2----|
 ||--------------------|--------------------|--------------------|
 |--------------------|--------------------|--------------------|
 |--------------------|--------------------|--------------------|
 |--0------------0----|--5------------5----|--4------------4----|
 |--------------------|--------------------|--------------------|
 |--------------------|--------------------|-------------------||
 |--------------------|--------------------|--5----------------||
 |--2------------2----|--0------------0----|-------------------||
 |--------------------|--------------------|-------------------||

================================================================================
Play Section 1 four times
================================================================================
================================================================================
Play Section 3 twice [ Tempo = 72 BPM ]
================================================================================
================================================================================
Play Section 4 four times [ Tempo = 62 BPM ]
================================================================================
================================================================================
Outro: Play twice
================================================================================
 
 ||----------------------|---------------------|----------------------|
 ||----------------------|---------------------|----------------------|
 ||--5----0--7-----------|---------------------|--5----0--7-----------|
 ||-----------------4----|--2--------2----0----|-----------------5----|
 |-----------------------|----------------------|---------------------|
 |--------6--------------|----------------------|---------------------|
 |--4--------5-----------|--5----0--7-----------|---------------------|
 |-----5-----------------|-----------------4----|--2--------2----0----|

|____________________[1]
 
 |---------------------|--------------------| |
 |---------------------|--------------------|*|
 |--5--------2----0----|--------------------|*|
 |---------------------|--3--------0--------| |

|_____________________________________________________________________[2]
 
 |-----------------------|--------------------------|--------------------|
 |-----------14----------|--------------16----------|--------------------|
 |-----------------12----|--------16----------16----|--------------------|
 |--3--------------------|--14----------------------|--14----------------|
 |---------------------||
 |---------------------||
 |---------------------||
 |--(14)----------\ --||

================================================================================
[End]================================================================================
Tab summary: Intro x 1
Section 1 x 4
Section 2 x 1
Section 1 x 4
Section 3 x 2
Section 4 x 2
Section 1 x 4
Section 5 x 1
Section 1 x 4
Section 3 x 2
Section 4 x 4
Outro x 2
END

Important: The song above is NOT stored on the Chordie server. The original song is hosted at www.guitartabs.cc. Chordie works as a search engine and provides on-the-fly formatting. Chordie does not index songs against artists'/composers' will. To remove this song please click here.

Text color:
Chord color:
Chord grids: 
Font size:    
Page size: 

A# C D# F
Rate #1 of 3 versions

Jango Player

Login - add to songbook

SHARE PAGE  



You need to log in to post comments