Guitar Tabs, Chords and Lyrics
Major upgrade!! After one year development the new version of Chordie is now online! Please give feedback.


Baby Bitch  Ween

Tabbed By Dan Walsh, Enjoy....
1 Verse:
[Em] [G] [Dsus4] [(D)] [Am] [Am7] [(Am)]  
 
 [|--0--0-0-0-0-|-3--3-3-3-3-|-3p2-2-2-2--|-0--0-0-0-0-|-0-0-0-0-0-0-]
 [|*-0--0-0-0-0-|-0--0-0-0-0-|-3---3-3-3--|-1--1-1-1-1-|-1-1-1-1-1-1-]
 [|--0--0-0-0-0-|-0--0-0-0-0-|-2---2-2-2--|-2--2-2-2-2-|-0h2-0h2-2-2-]
 [|--2--2-2-2-2-|-0--0-0-0-0-|-0---0-0-0--|-2--2-2-2-2-|-2-2-2-2-2-2-]
 [|*-2--2-2-2-2-|-2--2-2-2-2-|------------|-0--0-0-0-0-|---------0-0-]
 [|--0--0-0-0-0-|-3--3-3-3-3-|------------|-0--0-0-0-0-|-----------0-]

1v Its Been a While Since Ive seen your Smile, But...
Came into the room and you saw my girl, and you...
year" she said and you shook your head said "I'm...
[Em] [G] [Dsus4] [(D)] [Dsus4] [(D)]  
 
 [--0--0-0-0-0-|-3--3-3-3-3-|-3p2-2-2-2--|-3p2-2-2-2--|]
 [--0--0-0-0-0-|-0--0-0-0-0-|-3---3-3-3--|-3---3-3-3-*|]
 [--0--0-0-0-0-|-0--0-0-0-0-|-2---2-2-2--|-2---2-2-2--|]
 [--2--2-2-2-2-|-0--0-0-0-0-|-0---0-0-0--|-0---0-0-0--|]
 [--2--2-2-2-2-|-2--2-2-2-2-|------------|-----------*|]
 [--0--0-0-0-0-|-3--3-3-3-3-|------------|------------|]X3

now you've Come back Again
Asked her how long its been "A...
Surprised its gone on that long"
Bridge:
[Dsus4] [(D)] [Dsus4] [(D)]  
 
 |--3p2-2-2-2--|-3p2-2-2-2--|]
 |--3---3-3-3--|-3---3-3-3--|]
 |--2---2-2-2--|-2---2-2-2--|]
 |--0---0-0-0--|-0---0-0-0--|]
 |-------------|------------|]
 |-------------|------------|]

1 chorus:
[Em] [G] [Dsus4] [(D)] [Am] [Am7] [(Am)]  
 
 [|--0--0-0-0-0-|-3--3-3-3-3-|-3p2-2-2-2--|-0--0-0-0-0-|-0-0-0-0-0-0-]
 [|*-0--0-0-0-0-|-0--0-0-0-0-|-3---3-3-3--|-1--1-1-1-1-|-1-1-1-1-1-1-]
 [|--0--0-0-0-0-|-0--0-0-0-0-|-2---2-2-2--|-2--2-2-2-2-|-0h2-0h2-2-2-]
 [|--2--2-2-2-2-|-0--0-0-0-0-|-0---0-0-0--|-2--2-2-2-2-|-2-2-2-2-2-2-]
 [|*-2--2-2-2-2-|-2--2-2-2-2-|------------|-0--0-0-0-0-|---------0-0-]
 [|--0--0-0-0-0-|-3--3-3-3-3-|------------|-0--0-0-0-0-|-----------0-]

Baby, Baby, Baby, Bitch For...
Baby, Baby, Baby, Bitch I'm...
[Em] [G] [Dsus4] [(D)] [Dsus4] [(D)]  
 
 [--0--0-0-0-0-|-3--3-3-3-3-|-3p2-2-2-2--|-3p2-2-2-2--|]
 [--0--0-0-0-0-|-0--0-0-0-0-|-3---3-3-3--|-3---3-3-3-*|]
 [--0--0-0-0-0-|-0--0-0-0-0-|-2---2-2-2--|-2---2-2-2--|]
 [--2--2-2-2-2-|-0--0-0-0-0-|-0---0-0-0--|-0---0-0-0--|]
 [--2--2-2-2-2-|-2--2-2-2-2-|------------|-----------*|]
 [--0--0-0-0-0-|-3--3-3-3-3-|------------|------------|]X2 

words I Am at A Loss
Better now Please fuck off What...
2Verse:
[Em] [G] [Dsus4] [(D)] [Am] [Am7] [(Am)]  
 
 [|--0--0-0-0-0-|-3--3-3-3-3-|-3p2-2-2-2--|-0--0-0-0-0-|-0-0-0-0-0-0-]
 [|*-0--0-0-0-0-|-0--0-0-0-0-|-3---3-3-3--|-1--1-1-1-1-|-1-1-1-1-1-1-]
 [|--0--0-0-0-0-|-0--0-0-0-0-|-2---2-2-2--|-2--2-2-2-2-|-0h2-0h2-2-2-]
 [|--2--2-2-2-2-|-0--0-0-0-0-|-0---0-0-0--|-2--2-2-2-2-|-2-2-2-2-2-2-]
 [|*-2--2-2-2-2-|-2--2-2-2-2-|------------|-0--0-0-0-0-|---------0-0-]
 [|--0--0-0-0-0-|-3--3-3-3-3-|------------|-0--0-0-0-0-|-----------0-]

[(Em)] Else you gonna[(G)] say while your [(Dsus4)]Back on your[(Am)] stay Maybe...
Just too bad your beautiful I guess I...
[Em] [G] [Dsus4] [(D)] [Dsus4] [(D)]  
 
 [--0--0-0-0-0-|-3--3-3-3-3-|-3p2-2-2-2--|-3p2-2-2-2--|]
 [--0--0-0-0-0-|-0--0-0-0-0-|-3---3-3-3--|-3---3-3-3-*|]
 [--0--0-0-0-0-|-0--0-0-0-0-|-2---2-2-2--|-2---2-2-2--|]
 [--2--2-2-2-2-|-0--0-0-0-0-|-0---0-0-0--|-0---0-0-0--|]
 [--2--2-2-2-2-|-2--2-2-2-2-|------------|-----------*|]
 [--0--0-0-0-0-|-3--3-3-3-3-|------------|------------|]X2

[(Em)] something, maybe[(G)] Nothing, well[(Dsus4)] see It's...
Wasn't for you and you weren't for me
Bridge:
[Dsus4] [(D)] [Dsus4] [(D)]  
 
 |--3p2-2-2-2--|-3p2-2-2-2-2-|]
 |--3---3-3-3--|-3---3-3-3-3-|]
 |--2---2-2-2--|-2---2-2-2-2-|]
 |--0---0-0-0--|-0---0-0-0-0-|]
 |-------------|-------------|]
 |-------------|-------------|]

2 chorus:
 
 [|--0--0-0-0-0-|-1--1-1-1-1-|-3p2-2-2-2--|-0--0-0-0-0-|-0-0-0-0-0-0-]
 [|*-0--0-0-0-0-|-0--0-0-0-0-|-3---3-3-3--|-1--1-1-1-1-|-1-1-1-1-1-1-]
 [|--0--0-0-0-0-|-0--0-0-0-0-|-2---2-2-2--|-2--2-2-2-2-|-0h2-0h2-2-2-]
 [|--2--2-2-2-2-|-0--0-0-0-0-|-0---0-0-0--|-2--2-2-2-2-|-2-2-2-2-2-2-]
 [|*-2--2-2-2-2-|-2--2-2-2-2-|------------|-0--0-0-0-0-|---------0-0-]
 [|--0--0-0-0-0-|-3--3-3-3-3-|------------|-0--0-0-0-0-|-----------0-]

Baby, Baby, Baby, Bitch Please...
Baby, Baby, Baby, Bitch Go...
[Em] [G] [Dsus4] [(D)] [Dsus4] [(D)]  
 
 [--0--0-0-0-0-|-3--3-3-3-3-|-3p2-2-2-2--|-3p2-2-2-2--|]
 [--0--0-0-0-0-|-0--0-0-0-0-|-3---3-3-3--|-3---3-3-3-*|]
 [--0--0-0-0-0-|-0--0-0-0-0-|-2---2-2-2--|-2---2-2-2--|]
 [--2--2-2-2-2-|-0--0-0-0-0-|-0---0-0-0--|-0---0-0-0--|]
 [--2--2-2-2-2-|-2--2-2-2-2-|------------|-----------*|]
 [--0--0-0-0-0-|-3--3-3-3-3-|------------|------------|]X2 

slip back into yourself
conquer someone else
3 verse:
[Em] [G] [Dsus4] [(D)] [Am] [Am7] [(Am)]  
 
 [|--0--0-0-0-0-|-3--3-3-3-3-|-3p2-2-2-2--|-0--0-0-0-0-|-0-0-0-0-0-0-]
 [|*-0--0-0-0-0-|-0--0-0-0-0-|-3---3-3-3--|-1--1-1-1-1-|-1-1-1-1-1-1-]
 [|--0--0-0-0-0-|-0--0-0-0-0-|-2---2-2-2--|-2--2-2-2-2-|-0h2-0h2-2-2-]
 [|--2--2-2-2-2-|-0--0-0-0-0-|-0---0-0-0--|-2--2-2-2-2-|-2-2-2-2-2-2-]
 [|*-2--2-2-2-2-|-2--2-2-2-2-|------------|-0--0-0-0-0-|---------0-0-]
 [|--0--0-0-0-0-|-3--3-3-3-3-|------------|-0--0-0-0-0-|-----------0-]

[(Em)] People say, How[(G)] beautiful how[(Dsus4)] sweet, how[(Am)] kind your...
I, for one, have seen the sun and the...
fat, got angry,started hating myself wrote...
skinny and sick and paranoid
[Em] [G] [Dsus4] [(D)] [Dsus4] [(D)]  
 
 [--0--0-0-0-0-|-3--3-3-3-3-|-3p2-2-2-2--|-3p2-2-2-2--|]
 [--0--0-0-0-0-|-0--0-0-0-0-|-3---3-3-3--|-3---3-3-3-*|]
 [--0--0-0-0-0-|-0--0-0-0-0-|-2---2-2-2--|-2---2-2-2--|]
 [--2--2-2-2-2-|-0--0-0-0-0-|-0---0-0-0--|-0---0-0-0--|]
 [--2--2-2-2-2-|-2--2-2-2-2-|------------|-----------*|]
 [--0--0-0-0-0-|-3--3-3-3-3-|------------|------------|]X4

[(Em)] perfect, you've got[(G)] nothing to [(Dsus4)] hide But...
bitch that you've locked up inside Got...
Wrote "Birthday Boy" for you babe now i'm...
Without a cent to my name
Bridge:
[Dsus4] [(D)] [Dsus4] [(D)]  
 
 |--3p2-2-2-2--|-3p2-2-2-2-2-|]
 |--3---3-3-3--|-3---3-3-3-3-|]
 |--2---2-2-2--|-2---2-2-2-2-|]
 |--0---0-0-0--|-0---0-0-0-0-|]
 |-------------|-------------|]
 |-------------|-------------|]

3 Chorus:
 
 [|--0--0-0-0-0-|-1--1-1-1-1-|-3p2-2-2-2--|-0--0-0-0-0-|-0-0-0-0-0-0-]
 [|*-0--0-0-0-0-|-0--0-0-0-0-|-3---3-3-3--|-1--1-1-1-1-|-1-1-1-1-1-1-]
 [|--0--0-0-0-0-|-0--0-0-0-0-|-2---2-2-2--|-2--2-2-2-2-|-0h2-0h2-2-2-]
 [|--2--2-2-2-2-|-0--0-0-0-0-|-0---0-0-0--|-2--2-2-2-2-|-2-2-2-2-2-2-]
 [|*-2--2-2-2-2-|-2--2-2-2-2-|------------|-0--0-0-0-0-|---------0-0-]
 [|--0--0-0-0-0-|-3--3-3-3-3-|------------|-0--0-0-0-0-|-----------0-]

Baby, Baby, Baby, Bitch
beauty I've seen You come from a dream But I...
[Em] [G] [Dsus4] [(D)] [Dsus4] [(D)]  
 
 [--0--0-0-0-0-|-3--3-3-3-3-|-3p2-2-2-2--|-3p2-2-2-2--|]
 [--0--0-0-0-0-|-0--0-0-0-0-|-3---3-3-3--|-3---3-3-3-*|]
 [--0--0-0-0-0-|-0--0-0-0-0-|-2---2-2-2--|-2---2-2-2--|]
 [--2--2-2-2-2-|-0--0-0-0-0-|-0---0-0-0--|-0---0-0-0--|]
 [--2--2-2-2-2-|-2--2-2-2-2-|------------|-----------*|]
 [--0--0-0-0-0-|-3--3-3-3-3-|------------|------------|]X2 

Fuck you, you stinkin' ass ho Most...
can't close my eyes anymore
End:
[Em] [G] [Dsus4] [(D)] [Dsus4] [(D)]  
 
 [|--0--0-0-0-0-|-3--3-3-3-3-|-3p2-2-2-2--|-3p2-2-2-2--|]
 [|*-0--0-0-0-0-|-0--0-0-0-0-|-3---3-3-3--|-3---3-3-3-*|]
 [|--0--0-0-0-0-|-0--0-0-0-0-|-2---2-2-2--|-2---2-2-2--|]
 [|--2--2-2-2-2-|-0--0-0-0-0-|-0---0-0-0--|-0---0-0-0--|]
 [|*-2--2-2-2-2-|-2--2-2-2-2-|------------|-----------*|]
 [|--0--0-0-0-0-|-3--3-3-3-3-|------------|------------|]x2 

can't close my eyes anymore
[Em] [G]  
 
 [|--0----------|-3----------|-3----------|]
 [|--0----------|-0----------|-3----------|]
 [|--0----------|-0----------|-2----------|]
 [|--2----------|-0----------|-0----------|]
 [|--2----------|-2----------|-0----------|]
 [|--0----------|-3----------|------------|]

can't close my eyes anymore

Important: The song above is NOT stored on the Chordie server. The original song is hosted at www.guitartabs.cc. Chordie works as a search engine and provides on-the-fly formatting. Chordie does not index songs against artists'/composers' will. To remove this song please click here.

Text color:
Chord color:
Chord grids: 
Font size:    
Page size: 

Am Am7 Dsus4 Em G
Rate #2 of 9 versions

Jango Player

Login - add to songbook

SHARE PAGE  




You need to log in to post comments