Guitar Tabs, Chords and Lyrics
Major upgrade!! After one year development the new version of Chordie is now online! Please give feedback.


My Name Is Jonas  Weezer

as performed by Weezer
Words and Music by Rivers Cuomo, Jason Cropper, and Patrick Wilson
6/8 Time
All strings tuned a half-step down (Eb Ab Db Gb Bb Eb)
(All chords relative to standard tuning)
Intro
[(C)] [(G6/B)] [(Am)] [(G6/B)]  
 
 |:|---------------------0---|---------------------0---|:|
 |:|---1-----1-----0-------0-|---1-----1-----0-------0-|:|
 |:|-----0-----0-----0-------|-----2-----2-----0-------|:|
 |:|-------2-----------0-----|-------2-----------0-----|:|
 |:|-------------------------|-------------------------|:|

(2nd time) 1. My name is
Verse
[C5] [G5] [A5] [F5] [C5]  
 
 |-------------|-------------|---|
 |-------------|-------------|---|
 |-------------|-------------|---|
 |-5-5-5-------|-------------|-5-|
 |-------3-3-3-|-5-5-5-1-1-1-|---|

Jonas, I'm carrying the
[(C)] [(G6/B)] [(Am)] [(G6/B)]  
 
 |---------------------0---|---------------------0---|
 |---1-----1-----0-------0-|---1-----1-----0-------0-|
 |-----0-----0-----0-------|-----2-----2-----0-------|
 |-------2-----------0-----|-------2-----------0-----|
 |-------------------------|-------------------------|

wheel. Thanks for all you've
[C5] [G5] [A5] [F5]  
 
 |-------------|-------------|
 |-------------|-------------|
 |-------------|-------------|
 |-5-5-5-------|-------------|
 |-------3-3-3-|-5-5-5-1-1-1-|

shown us, This is how
[C5] [G5] [A5] [F5]  
 
 |-------------|-------------|
 |-------------|-------------|
 |-------------|-------------|
 |-5-5-5-------|-------------|
 |-3-3-3-5-5-5-|-7-7-7-3-3-3-|
 |-------3-3-3-|-5-5-5-1-1-1-|

we feel.
[C5]Come sit [G5]next to me,[A5] pour your[F5]self some tea
[C5]Just like [G5]grand-ma made[A5] when we couldn't [F5]find sleep.
[C5]Things were [G5]better then,[A5] once but [F5]never again.
[C5]We've all [G5]left the den, [A5]let me tell you [F5]'bout it.
[C5] [A5] [G5]  
 
 |------------------------|--------------------------|
 |------------------------|--------------------------|
 |------------------------|--------------------------|
 |-5---5---5--------------|--------------------------|
 |-3---3---3---7---7---7--|--5---5---5---5---5---5---|
 |-------------5---5---5--|--3---3---3---3---3---3---|

Choo-choo train left right on time.
[C5] [A5] [G5]  
 
 |------------------------|--------------------------|
 |------------------------|--------------------------|
 |------------------------|--------------------------|
 |-5---5---5--------------|--------------------------|
 |-3---3---3---7---7---7--|--5---5---5---5---5---5---|
 |-------------5---5---5--|--3---3---3---3---3---3---|

A ticket cost only your mind.
[C5]The driver said, "[A5]Hey man, we go [G5]all the way."
Of [C5]course we were [A5]willing to [G5]pay.
[(C)] [(G6/B)] [(Am)] [(G6/B)]  
 
 |:|---------------------0---|---------------------0---|:|
 |:|---1-----1-----0-------0-|---1-----1-----0-------0-|:|
 |:|-----0-----0-----0-------|-----2-----2-----0-------|:|
 |:|-------2-----------0-----|-------2-----------0-----|:|
 |:|-------------------------|-------------------------|:|

(2nd Time) My name is
[C5] [G5] [A5] [F5] [C5]  
 
 |-------------|-------------|---|
 |-------------|-------------|---|
 |-------------|-------------|---|
 |-5-5-5-------|-------------|-5-|
 |-------3-3-3-|-5-5-5-1-1-1-|---|

Wepeel, got a box full of your
[(C)] [(G6/B)] [(Am)] [(G6/B)]  
 
 |---------------------0---|---------------------0---|
 |---1-----1-----0-------0-|---1-----1-----0-------0-|
 |-----0-----0-----0-------|-----2-----2-----0-------|
 |-------2-----------0-----|-------2-----------0-----|
 |-------------------------|-------------------------|

toys. Fresh out of
[C5] [G5] [A5] [F5]  
 
 |-------------|-------------|
 |-------------|-------------|
 |-------------|-------------|
 |-5-5-5-------|-------------|
 |-------3-3-3-|-5-5-5-1-1-1-|

batteries but there still makin'
[C5] [G5] [A5] [F5]  
 
 |-------------|-------------|
 |-------------|-------------|
 |-------------|-------------|
 |-5-5-5-------|-------------|
 |-3-3-3-5-5-5-|-7-7-7-3-3-3-|
 |-------3-3-3-|-5-5-5-1-1-1-|

noise, makin' noise.
[C5]Tell me [G5]what to do,[A5] now the [F5]tank is dry.
[C5]Now this [G5]wheel is flat,[A5] and you [F5]know what else?
[C5]Guess what [G5]I receive[A5]d in the [F5]mail today.
[C5]Words of [G5]deep concern [A5]from my little [F5]brother.
The [C5]building's not [A5]goin' as it's [G5]planned.
The [C5]foreman has [A5]injured his [G5]hand.
The [C5]dozer will [A5]not clear its [G5]path.
The [C5]driver swears [A5]he learned his [G5]math.
Chorus
[(F)] [(G)]  
 
 |----5--5--5--5--5--5--|--7--7--7--7--7--7--|
 |----------------------|--------------------|
 |----2--2--2--2--2--2--|--4--4--4--4--4--4--|
 |----------------------|--------------------|
 |----------------------|--------------------|

////////////////////////////////////////////\
 
 |----------------------|--------------------|
 |----6--6--6--8--8--8--|--8--8--8--10-10-10-|
 |----------------------|--------------------|
 |----3--3--3--5--5--5--|--5--5--5--7--7--7--|
 |----------------------|--------------------|

The workers are going home,
[(F)] [(G)]  
 
 |--8--8--8--8--8--8--|--10-10-10-10-10-10---|
 |--------------------|----------------------|
 |--5--5--5--5--5--5--|--7--7--7--7--7--7----|
 |--------------------|----------------------|
 |--------------------|----------------------|
 |--------------------|----------------------|

////////////////////////////////////////////\
 
 |--------------------|----------------------|
 |--10-10-10-12-12-12-|--12-12-12-13-13-13---|
 |--------------------|----------------------|
 |--7--7--7--9--9--9--|--9--9--9--10-10-10---|
 |--------------------|----------------------|
 |--------------------|----------------------|

workers are going home. The
[(F)] [(G)]  
 
 |--12-12-12-12-12-12-|-13-13-13-13-13-13---|
 |--------------------|---------------------|
 |--9--9--9--9--9--9--|-10-10-10-10-10-10---|
 |--------------------|---------------------|
 |--------------------|---------------------|
 |--------------------|---------------------|

///////////////////////////////////////////\
 
 |--------------------|---------------------|
 |--13-13-13-15-15-15-|-15-15-15-17-17-17---|
 |--------------------|---------------------|
 |--10-10-10-12-12-12-|-12-12-12-15-15-15---|
 |--------------------|---------------------|
 |--------------------|---------------------|

workers are going home, the
[(F)] [(G)]  
 
 |--15-15-15-17-17-17-|-19-19-19-19-19-19---|
 |--------------------|---------------------|
 |--12-12-12-14-14-14-|-16-16-16-16-16-16---|
 |--------------------|---------------------|
 |--------------------|---------------------|
 |--------------------|---------------------|

///////////////////////////////////////////\
 
 |--------------------|---------------------|
 |--17-17-17-18-18-18-|-18-18-18-17-17-17---|
 |--------------------|---------------------|
 |--14-14-14-15-15-15-|-15-15-15-14-14-14---|
 |--------------------|---------------------|
 |--------------------|---------------------|

workers are going home.
Break
[C5]  
 
 |-------------------------|:|-------------------------|:|
 |-------------------------|:|-------------------------|:|
 |-------------------------|:|-------------------------|:|
 |-5-5-5-5-5-5-5-5-5-5-5-5-|:|-5-5-5-5-5-5-5-5-5-5-5-5-|:|
 |-3-3-3-3-3-3-3-3-3-3-3-3-|:|-3-3-3-3-3-3-3-3-3-3-3-3-|:|
 |-------------------------|:|-------------------------|:|

Yeah! (Repeat 3x)
Interlude
[C5] [A5] [G5]  
 
 |-------------------------|-----------------------|
 |---5-----5-----5-----5---|---8-----8-----8-----8-|
 |-----5-----5-----5-----5-|-----7-----7-----7-----|
 |-5-----5-----7-----7-----|-9-----9-----9-----9---|
 |-------------------------|-----------------------|

//////////////////////////////////////////////////\
 
 |-------------------------|-----------------------|
 |-------------------------|-----------------------|
 |-9-9-9-9-9-9-9-9-9-9-9-9-|-1010101010101010101010|
 |-------------------------|-----------------------|
 |-------------------------|-----------------------|

[C5] [A5] [G5]  
 
 |-------------------------|-----------------------|
 |---8-----8-----10---10---|---12----12----12----12|
 |-----9-----9-----9-----9-|-----12----12----12----|
 |-10----10---10----10-----|-12----12----12----12--|
 |-------------------------|-----------------------|
 |-------------------------|-----------------------|

//////////////////////////////////////////////////\
 
 |-------------------------|-----------------------|
 |-------------------------|-----------------------|

|-121212121212141414141414|-1616161616161616161616|
 
 |-------------------------|-----------------------|

|-101010101010121212121212|-1414141414141414141414|
 
 |-------------------------|-----------------------|

[C5] [A5] [G5]  
 
 |---8-----8-----8-----8---|--10----10----10---10--|
 |-----8-----8-----10----10/12--12----12----12---12|
 |-9-----9-----9-----9-----|------12----12----12---|
 |-------------------------|-----------------------|
 |-------------------------|-----------------------|
 |-------------------------|-----------------------|

//////////////////////////////////////////////////\
 
 |-------------------------|-----------------------|

|-131313131313131313131313|-1515151515151515151515|
 
 |-------------------------|-----------------------|

|-101010101010101010101010|-1212121212121212121212|
 
 |-------------------------|-----------------------|
 |-------------------------|-----------------------|

[C5] [A5] [G5]  
 
 |---12----12----12----12--|--15---15----17----19--|
 |-----13----13----13----13|----15---15----15----16|
 |-12----12----14----14----|/16---16---16----16----|
 |-------------------------|-----------------------|
 |-------------------------|-----------------------|
 |-------------------------|-----------------------|

//////////////////////////////////////////////////\
 
 |-------------------------|-----------------------|

|-171717171717171717171717|17bbbbbbbbbbbbbbbbbbbbb|
 
 |-------------------------|-----------------------|

|-141414141414141414141414|14bbbbbbbbbbbbbbbbbbbbb|
 
 |-------------------------|-----------------------|
 |-------------------------|-----------------------|

Chorus
[E5] [F5] [G5]  
 
 |-------------------------|-------------------------|
 |-------------------------|-------------------------|
 |-------------------------|-------------------------|
 |-------------------------|-------------------------|
 |-2---2-2-2-2-3---3-3-3-3-|-5---5-5-5-5-5---5-5-5-5-|
 |-0---0-0-0-0-1---1-1-1-1-|-3---3-3-3-3-3---3-3-3-3-|

////////////////////////////////////////////////////\
 
 |-------------------------|-------------------------|
 |-------------------------|-15--13--12--15--13--12--|
 |-12--12--12--14--14--14--|-------------------------|
 |-------------------------|-------------------------|
 |-------------------------|-------------------------|
 |-------------------------|-------------------------|

Workers are go - ing home, the
[E5]workers are [F5]going [G5]home.
The [E5]workers are [F5]going [G5]home,
[E5]yeah, [F5]yeah, [G5]yeah.
Harmonica Solo
(same as Interlude)
Outro
[E5] [F5]  
 
 |-----------------------|-----------------------|
 |-----------------------|-----------------------|
 |-----------------------|-----------------------|
 |-----------------------|-----------------------|
 |-2--2---2--2--3--3--3--|-5--5---5--5--5--5--5--|
 |-0--0---0--0--1--1--1--|-3--3---3--3--3--3--3--|

[E5] [F5] [G5]  
 
 |-----------------------|-----------------------|
 |-----------------------|-----------------------|
 |-----------------------|-----------------------|
 |-----------------------|-----------------------|
 |-2--2---2--2--3--3--3--|-5---------------------|
 |-0--0---0--0--1--1--1--|-3---------------------|
 |--------------------|
 |--------------------|
 |--------------------|
 |--------------------|
 |------------3-------|

[(C)] [(G6/B)] [(Am)] [(G6/B)]  
 
 |:|---------------------0---|---------------------0---|:|
 |:|---1-----1-----0-------0-|---1-----1-----0-------0-|:|
 |:|-----0-----0-----0-------|-----2-----2-----0-------|:|
 |:|-------2-----------0-----|-------2-----------0-----|:|
 |:|-3-----------2-----------|-0-----------2-----------|:|
 |:|-------------------------|-------------------------|:|

(2nd Time) My name is
[C]  
 
 |-0------------------------||
 |-1------------------------||
 |-0------------------------||
 |-2------------------------||
 |-3------------------------||
 |--------------------------||

Jonas.

Important: The song above is NOT stored on the Chordie server. The original song is hosted at www.guitartabs.cc. Chordie works as a search engine and provides on-the-fly formatting. Chordie does not index songs against artists'/composers' will. To remove this song please click here.

Text color:
Chord color:
Chord grids: 
Font size:    
Page size: 

A5 C C5 E5 F5 G5
Rate #1 of 11 versions

Login - add to songbook

SHARE PAGE  



You need to log in to post comments