Guitar Tabs, Chords and Lyrics
Server problems seems to be fixed. Chordie has been experiencing problems with songs disappearing. These issues now seems to be fixed, but still verifying the fix. If you find anything strange, please email admin@chordie.com.


No One Else  Weezer

as Performed by Weezer
Words and Music by Rivers Cuomo
4/4 Time
Standard Tuning
Intro
[E5] [B/D#] [C#] [B] [A5]  
 
 e||-------------------------|-------------------------|
 B||-------------------------|-------------------------|
 G||-------------------------|-------------------------|
 D||-9--9--9--9--9--9--11-11-|-11-6--6--6--6--4-----4--|
 A||-7--7--7--6--6--6--------|-------------------7-----|
 E||-------------------9--9--|-9--7--7--7--5--5--5--5--|

Verse
[E5] [A5] [E/G#]  
 
 e|-------------------------|-------------------------|
 B|-------------------------|-------------------------|
 G|-------------------------|-------------------------|
 D|-------------------------|-------------------------|
 A|-2--2--2--2--2--2--2--2--|-7--7--7--7--7--7--7--7--|
 E|-0--0--0--0--0--0--0--0--|-5--5--5--5--4--4--4--4--|

My girl's got a big mouth with
[F#5] [B5] [F#/A]  
 
 e|-------------------------|-------------------------|
 B|-------------------------|-------------------------|
 G|-------------------------|-------------------------|
 D|-------------------------|-------------------------|
 A|-4--4--4--4--4--4--4--4-//-9--9--9--9--9--9--9--9--|
 E|-2--2--2--2--2--2--2--2-//-7--7--7--7--5--5--5--5--|

which she blabbers a lot.
[E/G#] [A5] [E/G#]  
 
 e|-------------------------|-------------------------|
 B|-------------------------|-------------------------|
 G|-------------------------|-------------------------|
 D|-------------------------|-------------------------|
 A|-7--7--7--7--7--7--7--7--|-7--7--7--7--7--7--7--7--|
 E|-4--4--4--4--4--4--4--4--|-5--5--5--5--4--4--4--4--|

She laughs at most everything,
[F#5] [B5]  
 
 e|-------------------------|-------------------------|
 B|-------------------------|-------------------------|
 G|-------------------------|-------------------------|
 D|-------------------------|-------------------------|
 A|-4--4--4--4--4--4--4--4-//-9--9--9--9--9--9--9--9--|
 E|-2--2--2--2--2--2--2--2-//-7--7--7--7--7--7--7--7--|

whether it's funny or not.
Pre-Chorus
[C#5] [F#5]  
 
 e|-------------------------|-------------------------|
 B|-------------------------|-------------------------|
 G|-------------------------|-------------------------|
 D|-6--6--6--6--6--6--6--6--|-------------------------|
 A|-4--4--4--4--4--4--4--4--|-4--4--4--4--4--4--4--4--|
 E|-------------------------|-2--2--2--2--2--2--2--2--|

And if you see her
[C#5] [F#5] [G#5] [B5]  
 
 e|-------------------------|-------------------------|
 B|-------------------------|-------------------------|
 G|-------------------------|-------------------------|
 D|-6--6--6--6--6--6--6--6--|-------------------------|
 A|-4--4--4--4--4--4--4--4--|-4--4--4--6--6--6--9--9--|
 E|-------------------------|-2--2--2--4--4--4--7--7--|

tell her it's o - ver now.
Chorus
[E5] [B5]  
 
 e|-------------------------|-------------------------|
 B|-------------------------|-------------------------|
 G|-------------------------|-------------------------|
 D|-------------------------|-4--4--4--4--4--4--4--4--|
 A|-2--2--2--2--2--2--2--2--|-2--2--2--2--2--2--2--2--|
 E|-0--0--0--0--0--0--0--0--|-------------------------|

I want a girl who will
[C#5] [A5]  
 
 e|-------------------------|-------------------------|
 B|-------------------------|-------------------------|
 G|-------------------------|-------------------------|
 D|-6--6--6--6--6--6--6--6--|-2--2--2--2--2--2--2--2--|
 A|-4--4--4--4--4--4--4--4--|-0--0--0--0--0--0--0--0--|
 E|-------------------------|-------------------------|

laugh for no one else.
[E5]When I'm a[B5]way she puts her [C#5]makeup on the [A5]shelf.
[E5] [B5]  
 
 e|-------------------------|-------------------------|
 B|-------------------------|-------------------------|
 G|-------------------------|-------------------------|
 D|-------------------------|-4--4--4--4--4--4--4--4--|
 A|-2--2--2--2--2--2--2--2--|-2--2--2--2--2--2--2--2--|
 E|-0--0--0--0--0--0--0--0--|-------------------------|

When I'm a - way she nev - er
[C#5] [F#5] [G#5] [B5]  
 
 e|-------------------------|-------------------------|
 B|-------------------------|-------------------------|
 G|-------------------------|-------------------------|
 D|-6--6--6--6--6--6--6--6--|-------------------------|
 A|-4--4--4--4--4--4--4--4--|-4--4--4--6--6--6--9--9--|
 E|-------------------------|-2--2--2--4--4--4--7--7--|

leaves the house.
[E5]I want a [B5]girl who laughs for [C#5]no one else.[A5]
Repeat Intro
[E5]My girl's got [A5]eyeball[E/G#]s in the back of her head.[B5] [F#/A]
[E/G#]She looks around[A5] and around,[E/G#] you know it [F#5]makes me sad to see her like that.[B5]
Pre-Chorus
[C#5] [F#5]  
 
 e|-------------------------|-------------------------|
 B|-9--9--9--9--9--9--9--9--|-9--9--9--9--9--9--9--9--|
 G|-------------------------|-------------------------|
 D|-6--6--6--6--6--6--6--6--|-6--6--6--6--6--6--6--6--|
 A|-------------------------|-------------------------|
 E|-------------------------|-------------------------|

Please don't be - lieve her.
[C#5]  
 
 e|-------------------------|
 B|-9--9--9--9--9--9--9--9--|
 G|-------------------------|
 D|-6--6--6--6--6--6--6--6--|
 A|-------------------------|
 E|-------------------------|

She says that
[F#5]for [G#5]anyo[B5]ne.
[C#5] [F#5]  
 
 e|-------------------------|-------------------------|
 B|-9--9--9--9--9--9--9--9--|-9--9--9--9--9--9--9--9--|
 G|-------------------------|-------------------------|
 D|-6--6--6--6--6--6--6--6--|-6--6--6--6--6--6--6--6--|
 A|-------------------------|-------------------------|
 E|-------------------------|-------------------------|

And if you see her,
[C#5]  
 
 e|-------------------------|
 B|-9--9--9--9--9--9--9--9--|
 G|-------------------------|
 D|-6--6--6--6--6--6--6--6--|
 A|-------------------------|
 E|-------------------------|

tell her it's a
[F#5]hey, [G#5]hey, hey[B5], hey.
Chorus
[E5]I want a [B5]girl who will [C#5]laugh for no one [A5]else.
[E5]When I'm a[B5]way she puts her [C#5]makeup on the [A5]shelf.
[E5]When I'm a[B5]way she never [C#5]leaves the ha-[F#5]ha-h[G#5]a-ha[B5]-house.
[E5]I want a [B5]girl who laughs for [C#5]no one else.[A5]
Bridge
( Tab from: http://www.guitartabs.cc/tabs/w/weezer/no_one_else_tab_ver_3.html )
[G#5] [A5]  
 
 e|-------------------------|-------------------------|
 B|-------------------------|-------------------------|
 G|-------------------------|-------------------------|
 D|-------------------------|-------------------------|
 A|-6--6--6--6--6--6--6--6--|-7--7--7--7--7--7--7--7--|
 E|-4--4--4--4--4--4--4--4--|-5--5--5--5--5--5--5--5--|

And if you see her,
[G#5] [A5] [G#5] [B5]  
 
 e|-------------------------|-------------------------|
 B|-------------------------|-------------------------|
 G|-------------------------|-------------------------|
 D|-------------------------|-------------------4-----|
 A|-6--6--6--6--6--6--6--6--|---7--7----6--6----2-----|
 E|-4--4--4--4--4--4--4--4--|---5--5----4--4----------|

tell her its's o - ver now.
Solo
[E5] [A5] [E/G#]  
 
 e|-------------------------|-------------------------|
 B|----------12-12-12-12-12-|-9--9--9--5--5--5--5--5--|
 G|-------------------------|-------------------------|
 D|----------9--9--9--9--9--|-6--6--6--2--2--2--2--2--|
 A|-------------------------|-------------------------|
 E|-------------------------|-------------------------|

/////////////////////////////////////////////////////\
 
 e|-------------------------|-------------------------|
 B|-12-12-12-9--9--9--9--9--|-------------------------|
 G|-------------------------|-9--9--8--6--6--6--6--6--|
 D|-9--9--9--6--6--6--6--6--|-------------------------|
 A|-------------------------|-7--7--6--4--4--4--4--4--|
 E|-------------------------|-------------------------|

[F#5] [B5] [F#/A]  
 
 e|-------------------------|-------------------------|
 B|-------------------------|-------------------7--7--|
 G|-------------------------|---------4---------------|
 D|-------2--2--4b----2--4--|-4b---------4------4--4--|
 A|-4--4--------------------|-------------------------|
 E|-------------------------|-------------------------|

/////////////////////////////////////////////////////\
 
 e|-------------------------|-------------------------|
 B|-------------------------|-------------------------|
 G|-------------------------|-------------------------|
 D|-7--7--7--7--7--7--7--7--|-9--9--9--9--9--9--9--9--|
 A|-------------------------|-------------------------|
 E|-5--5--5--5--5--5--5--5--|-7--7--7--7--7--7--7--7--|

[E/G#] [A5] [E/G#]  
 
 e|-------------------------|-9--9--9-----------------|
 B|-12-12-12-9--9--9--9--9--|----------10-10-10-10-10-|
 G|-------------------------|-6--6--6-----------------|
 D|-9--9--9--6--6--6--6--6--|----------7--7--7--7--7--|
 A|-------------------------|-------------------------|
 E|-------------------------|-------------------------|

/////////////////////////////////////////////////////\
 
 e|-------------------------|-------------------------|
 B|-------------------------|-------------------------|
 G|-------------------------|-6--6--6--6--6--6--6--6--|
 D|-9--9--9--9--9--9--9--9--|-------------------------|
 A|-------------------------|-4--4--4--4--4--4--4--4--|
 E|-7--7--7--7--7--7--7--7--|-------------------------|

[F#5] [B5]  
 
 e|-12-12-12-9-----------7--|-------------------------|
 B|-------------------------|----------9h-10p9-\7--9--|
 G|-9--9--9--6--6--8--9-----|-------------------------|
 D|-------------------------|-------------------------|
 A|-------------------------|-------------------------|
 E|-------------------------|-------------------------|

/////////////////////////////////////////////////////\
 
 e|-------------------------|-------------------------|
 B|-------------------------|-------------------------|
 G|-6--6--6--6--6--6--6--6--|-8--8--8--8--8--8--8--8--|
 D|-------------------------|-------------------------|
 A|-4--4--4--4--4--4--4--4--|-6--6--6--6--6--6--6--6--|
 E|-------------------------|-------------------------|

Pre-Chorus
[C#5]  
 
 e|-------------------------|
 B|-------------------------|
 G|-8b----------------------|
 D|-------------------------|
 A|-6b----------------------|
 E|-------------------------|

And if you
[F#5]see her, [C#5]tell her it's [F#5]o - [G#5]ver [B5]now.
[C#5] [F#5]  
 
 e|-------------------------|-------------------------|
 B|-9--9--9--9--9--9--9--9--|-9--9--9--9--9--9--9--9--|
 G|-------------------------|-------------------------|
 D|-6--6--6--6--6--6--6--6--|-6--6--6--6--6--6--6--6--|
 A|-------------------------|-------------------------|
 E|-------------------------|-------------------------|

And if you watch her go,
(And if you
[C#5]  
 
 e|-------------------------|
 B|-9--9--9--9--9--9--9--9--|
 G|-------------------------|
 D|-6--6--6--6--6--6--6--6--|
 A|-------------------------|
 E|-------------------------|

watch her go.)
[F#5]watch her, watch [G#5]her, watch her, [B5]watch her.
Chorus
[E5]I want a [B5]girl who will [C#5]laugh for no one [A5]else.[E5]
When I'm [B5]away she puts her [C#5]makeup on the [A5]shelf.
[E5] [B5]  
 
 e|-------------------------|-------------------------|
 B|-------------------------|-9--9--7--7--5--5--7--7--|
 G|-------------------------|-------------------------|
 D|-------------------------|-6--6--4--4--2--2--4--4--|
 A|-2--2--2--2--2--2--2--2--|-------------------------|
 E|-0--0--0--0--0--0--0--0--|-------------------------|

When I'm a - way she ne - ver
[C#5] [F#5] [G#5] [B5]  
 
 e|-------------------------|-------------------------|
 B|-5-----5--5--------------|-------------------------|
 G|-------------6-----6--6--|-6-----------------------|
 D|-2-----2--2--------------|-------------------------|
 A|-------------4-----4--4--|-4-----------------------|
 E|-------------------------|-------------------------|

leaves the ha - ha - ha -ha - ha house.
[E5] [B5]  
 
 e|-------------------------|-------------------------|
 B|-------5--5--5--5--5--9--|-9--9--7--7--5--5--7--7--|
 G|-------------------------|-------------------------|
 D|-------2--2--2--2--2--6--|-6--6--4--4--2--2--4--4--|
 A|-------------------------|-------------------------|
 E|-------------------------|-------------------------|

I want a girl who laughs for
[C#5] [A5]  
 
 e|-------------------------|-------------------------|
 B|-5-----5--5--5--5--5--5--|-5--5--5--5--5--5--5--5--|
 G|-------------------------|-------------------------|
 D|-2-----2--2--2--2--2--2--|-2--2--2--2--2--2--2--2--|
 A|-------------------------|-------------------------|
 E|-------------------------|-------------------------|

no one else. No one else.
Outro
[E5] [B/D#] [C#] [B] [A5] [E5]  
 
 e|-------------------------|-------------------------|-------------------------|
 B|-------------------------|-------------------------|-------------------------|
 G|-------------------------|-------------------------|-------------------------|
 D|-9--9--9--9--9--9--11-11-|-11-6--6--6--6--4-----4--|-2-----------------------|
 A|-7--7--7--6--6--6--------|-------------------7-----|-2-----------------------|
 E|-------------------9--9--|-9--7--7--7--5--5--5--5--|-0-----------------------|

Yeah!

Important: The song above is NOT stored on the Chordie server. The original song is hosted at www.guitartabs.cc. Chordie works as a search engine and provides on-the-fly formatting. Chordie does not index songs against artists'/composers' will. To remove this song please click here.

Text color:
Chord color:
Chord grids: 
Font size:    
Page size: 

A5 B B5 C# C#5 E/G# E5 F#5 G#5
Rate #1 of 9 versions

Jango Player

Login - add to songbook

SHARE PAGE  



You need to log in to post comments