Guitar Tabs, Chords and Lyrics
Major upgrade!! After one year development the new version of Chordie is now online! Please give feedback.


When the Children Cry  White Lion

Credits to author of version 1. This is built off of that one
[E/B] [Bm] [C]  
 
 e|---------0-------| e|---------0-------| e|-------------0---|
 B|-----------0---0-| B|-3-----3---3-----| B|1--------1h3---0-|
 G|------0------0---| G|---4---------4---| G|--0---0----------|
 D|----4------------| D|-----4---------4-| D|----2------------|
 A|--2--------------| A|-2---------------| A|3----------------|
 E|0----------------| E|-----------------| E|-----------------| 

[D1] [D2] [G1]  
 
 e|-2-------3p2-----| e|-2------3-------2| e|3----------------|
 B|---3---3-----3---| B|---3---3--3---3--| B|--0---0----0---0-|
 G|-----2---------2-| G|-----2------2----| G|----0------------|
 D|-0---------------| D|-0---------------| D|-----------------|
 A|-----------------| A|-----------------| A|-----------------|
 A|-----------------| A|-----------------| E|3--------3---2---| 

[G2]  
 
 e|0------------0---|
 B|--1------1h3---0-|
 G|------0----------|
 D|----2------------|
 A|3----------------|
 E|-----------------|

Intro:
 
 e|0-------12-------|10-------8--7----|10-------8-------|7----------3--2--|
 B|--0---0----0---0-|---0---0---0--0--|---0---0---0---0-|---0---0---------|
 G|----0--------0---|-----0-----------|-----0-------0---|-----0-----------|
 D|-----------------|-----------------|-----------------|-----------------|
 A|-----------------|-----------------|-----------------|-----------------|
 E|0----------------|-----------------|-----------------|-----------3--2--|
 e|0-------12-------|10-------8--7----|10-------8-------|7----------------|
 B|--0---0----0---0-|---0---0---0--0--|---0---0---0---0-|---0---0---0--3--|
 G|----0--------0---|-----0-----------|-----0-------0---|-----0-----------|
 D|-----------------|-----------------|-----------------|-----------------|
 A|-----------------|-----------------|-----------------|-----------------|
 E|0----------------|-----------------|-----------------|-----------3--2--|

[E/B] [Bmin] [C] [G]  
 
 e|---------0-------|---------0-------|-------------0---|-3---------------|
 B|-----------0---0-|-3-----3---3-----|1--------1h3---0-|---3---3---3---3-|
 G|------0------0---|---4---------4---|--0---0----------|-----0-----------|
 D|----4------------|-----4---------4-|----2------------|-----------------|
 A|--2--------------|-2---------------|3----------------|-----------------|
 E|0----------------|-----------------|-----------------|-3-------3---2---|

[E/B] [Bmin] [C] [D3]  
 
 e|---------0-------|---------0-------|-------------0---|-2-------2h3p2-0-|
 B|-----------0---0-|-3-----3---3-----|1--------1h3---0-|---3---3--------3|
 G|------0------0---|---4---------4---|--0---0----------|-----2-----------|
 D|----4------------|-----4---------4-|----2------------|-0---------------|
 A|--2--------------|-2---------------|3----------------|-----------------|
 E|0----------------|-----------------|-----------------|-----------------|

Bm7 (nh)
 
 e|--5------5---10--|-----------------|
 B|----7--------10--|-(7)-------------|
 G|------7----------|-----------------|
 D|--0--------------|-----------------|
 A|-----------------|-----------------|
 E|-----------------|-----------------|

li[E/B]ttle c[Bm]hild
d[C]ry your [Bm]crying eyes
h[C]ow can[G1] I explain
th[E/B]e fear you fee[D1]l inside
c[E/B]ause you were[Bm] born
in[C]to this [Bm]evil world
wh[C]ere man is k[G1]illing man
and[E/B] no one knows jus[D1]t why
w[C]hat w[D1]e have become
j[G2]ust look what [Bm]we have done
a[C]ll that we [G1]destroyed
y[E/B]ou must bui[D2]ld again
w[E/B]hen the childre[Bm]n cry
let them[C] know we [G1]tried
cause when t[E/B]he children[Bm] sing
then the[C] new world [D2]begins
li[E/B]ttle c[Bm]hild
yo[C]u must [Bm]show the way
t[C]o a [G1]better day
f[E/B]or all the[D1] young
c[E/B]ause you wer[Bm]e born
f[C]or all the[Bm] world to see
t[C]hat we a[G1]ll can
w[E/B]ith love and[D1] peace
n[C]o more [D1]presidents
a[G2]nd all the [Bm]wars will end
o[C]ne un[G1]ited world
[E/B]under [D2]god
w[E/B]hen the childre[Bm]n cry
let them[C] know we [G1]tried
cause when t[E/B]he children[Bm] sing
then the[C] new world [D2]begins
w[C]hat w[D1]e have become
j[G2]ust look what [Bm]we have done
a[C]ll that we [G1]destroyed
y[E/B]ou must bui[D2]ld again
n[C]o more [D1]presidents
a[G2]nd all the [Bm]wars will end
o[C]ne un[G1]ited world
[E/B]under [D2]god
w[E/B]hen the childre[Bm]n cry
let them[C] know we [G1]tried
w[E/B]hen the childre[Bm]n fight
let them[C] know it [G1]ain't right
w[E/B]hen the childre[Bm]n pray
let them[C] know the[G1] way
cause when t[E/B]he children[Bm] sing
then the[C] new world [D2]begins

Important: The song above is NOT stored on the Chordie server. The original song is hosted at www.guitartabs.cc. Chordie works as a search engine and provides on-the-fly formatting. Chordie does not index songs against artists'/composers' will. To remove this song please click here.

Text color:
Chord color:
Chord grids: 
Font size:    
Page size: 

Bm Bmin C D2 D3 E/B G G2
Rate #1 of 17 versions

Login - add to songbook

SHARE PAGE  




You need to log in to post comments