Guitar Tabs, Chords and Lyrics
Major upgrade!! After one year development the new version of Chordie is now online! Please give feedback.


I Can't Wait  The White Stripes

intro
[A5] [F] [G]  
 
 ----------------------------------------------------------------------------|
 ----------------------------------------------------------------------------|
 ------2---------------------------------------------0-------------0---------|
 ---2-----2--0------------3------------------0--------------0---------0------|x2
 -0------------------3--------3---------2---------2-----------2----------2---|
 ---------------1---------------/3-----------------------------------------0-|

verse 1
[A5] [F] [G]  
 
 ----------------------------------------------------------------------|
 ----------------------------------------------------------------------|
 -------2--------0--------------------------------0----------0---------|x3
 ----2--------2--------------3---------------0---------0--------0------|
 -0----------------------3-------3--------2-----2---------2--------2/0-|
 --------------------1----------------/3-------------------------------|

[A5] [F] [G]  
 
 -----------------------------------------------------------|
 -----------------------------------------------------------|
 -------2---------------------------0-------0---x-x-x-x-x---|
 ----2-------2--0---------3---------0-------0---x-x-x-x-x-0-|
 -0--------------------3-------3----2-------2---x-x-x-x-x-0-|
 ------------------1----------------3-------3---x-x-x-x-x-0-|

CHORUS
[A] [F] [G]  
 
 -------------------------------------------------------------|
 -2---------------------------0-------------------------------|
 -2------2-------2-----2---2--0----0----0---0-0-x-x-x-x-x-----|
 -2------2---0---3-----3---3--0----0----0---0-0-x-x-x-x-x-0x4-|
 -0------0---0---3-----3---3-------2----3---2-2-x-x-x-x-x-0---|
 ------------0---1-----1---1-------3----3---3-3-x-x-x-x-x-0---|

[B5] [G] [G] [G5] [D5] [A5]  
 
 -------- 0-----------0----0-----------------------------------------------|
 -------- 0--0--0-----0----0-----------------------------------------------|
 -------- 0--0--0-----1----1--------------------7----7--7--0--2--2--0--0---|
 -4--x27- 0--0--0---0-2----2---0--5-----5---0---7----7--7--0--2--2--0--0x4-|
 -2------ 0--2--2---0-2----2---0--5-----5---0---5----5--5--0--0--0--0--0---|
 -------- 0--3--3---0-0----0---0--3-----3---0--------------0--------0--0---|

[G] [F] [G]  
 
 -------------------------------|
 -------------------------------|
 -0-----------------------------|
 -0-------------------3-------0-|
 -2-----------------3-------2---|
 -3-----------0---1------/3-----|

back to verse
solo
 
 -----------------------------------------------------------------------------|
 -----------------------------------------------------------------------------|
 -----------------------------------------------------------------------------|
 -----------------------------------------------------------------------------|
 ------------------------5---5--5-0-0--0--0-0----------------5---5--5-0-0-0---|
 -0---0--0-0-0-3---3--0------------------------0---0--0-0-3-----------------0-|

outro
 
 ---------------------------------------------------------|
 ---------------------------------------------------------|
 -0-------------------------------------------------------|
 -0--------------------------------------3--------0-------|
 -2------------------------------------3-------2-------0--|
 -3-----------------------------0---1-------/3------------|

tabbed by IDLEWILDLY

Important: The song above is NOT stored on the Chordie server. The original song is hosted at www.guitartabs.cc. Chordie works as a search engine and provides on-the-fly formatting. Chordie does not index songs against artists'/composers' will. To remove this song please click here.

Text color:
Chord color:
Chord grids: 
Font size:    
Page size: 

A A5 B5 D5 F G G5
Rate #1 of 2 versions

Jango Player

Login - add to songbook

SHARE PAGE  



You need to log in to post comments