Guitar Tabs, Chords and Lyrics
Server problems seems to be fixed. Chordie has been experiencing problems with songs disappearing. These issues now seems to be fixed, but still verifying the fix. If you find anything strange, please email admin@chordie.com.


I'm Bound to Pack It Up  The White Stripes

 
 ----------------------------------------------------------------------------

Im bound to Pack it Up - White Stripes
 
 ----------------------------------------------------------------------------

Tabbed by: Dave S.
Tuning:Standard
If you play along with the song you can tell this is the way Jack plays it, it sounds a
off tho because i believe he tuned his guitar down like 1/4 step or something.
Intro (2)x
[D] [F] [G] [D]  
 
 e|-2--2--3p2-2-3p2-2--2/5-5-5--6p5-5-6p-5--5/7-7-7--8p7-7-8p7-7-2--2-3p2-2-|
 B|-3--3--3---3-3---3--3/6-6-6--5---6-6--6--6/8-8-8--8---8-8---8-3--3-3---3-|
 G|-2--2--2---2-2---2--2/5-5-5--5---5-5--5--5/7-7-7--7---7-7---7-2--2-2---2-|
 D|-0--0--0---0-0---0--0-----------------------------------------0--0-0---0-|
 A|-------------------------------------------------------------------------|
 E|-------------------------------------------------------------------------|
 e|-------------------------------------------------------------------------|
 B|-------------------------------------------------------------------------|
 G|-------------------------------------------------------------------------|
 D|--3p0--------------------------------------------------------------------|
 A|------3------------------------------------------------------------------|
 E|-------------------------------------------------------------------------|

Verse (Same as intro)
[D]I've thought about it for a while
[F]and I've thought about the many miles
[G]but I think it's time that I've gone [D]away
[D]the feelings that you have for me
[F]have gone away it's plain to see
[G]and it looks to me that your pulling [D]away
Chorus
[C] [G] [C] [G] [D]  
 
 e|-0--0-0-0----3---3--0--0-0-0----3---3--2--2--3-3-3--2-2-2--2--3-3-3--2-2-|
 B|-1--1-1-1-0--0---0--1--1-1-1-0--0---0--3--3--3-3-3--3-3-3--3--3-3-3--2-3-|
 G|-0--0-0-0-0--0---0--0--0-0-0-0--0---0--2--2--2-2-2--2-2-2--2--2-2-2--3-2-|
 D|-2--2-2-2-0--0---0--2--2-2-2-0--0---0--0--0--0-0-0--0-0-0--0--0-0-0--0-0-|
 A|-3--3-3-3----2---2--3--3-3-3----2---2------------------------------------|
 E|-------------3---3--------------3---3------------------------------------|

[C] [G] [C] [G] [F] [G]  
 
 e|-0--0-0-0----3---3--0--0-0-0----3---3--1-1-1-1-1-1-1-1-1-1-1-1---3-3-3-3-|
 B|-1--1-1-1-0--0---0--1--1-1-1-0--0---0--1-1-1-1-1-1-1-1-1-1-1-1-0-0-0-0-0-|
 G|-0--0-0-0-0--0---0--0--0-0-0-0--0---0--2-2-2-2-2-2-2-2-2-2-2-2-0-0-0-0-0-|
 D|-2--2-2-2-0--0---0--2--2-2-2-0--0---0--3-3-3-3-3-3-3-3-3-3-3-3-0-0-0-0-0-|
 A|-3--3-3-3----2---2--3--3-3-3----2---2--3-3-3-3-3-3-3-3-3-3-3-3---2-2-2-2-|
 E|-------------3---3--------------3---3--1-1-1-1-1-1-1-1-1-1-1-1---3-3-3-3-|

[C]I'm gonna pick[G] it up
[C]I'm gonna pick[G] it up [D]today
[C]I'm bound pack[G] it up
[C]I'm bound pack[G] it up and go [F]away[G]
(Repeat Into 2x)
Verse
[D]I've found it hard to say to you
[F]that this is what I have to do
[G]but there is no way that I'm gonna [D]stay
[D]there are so many things you need to know
[F]and I wanna tell you before I go
[G]but it's hard to think of just what to [D]say
Chorus
[C]I'm gonna pick[G] it up
[C]I'm gonna pick[G] it up [D]today
[C]I'm bound pack[G] it up
[C]I'm bound pack[G] it up and go [F]away[G]
Verse
[D]I'm sorry to leave you all alone
[F]you're sitting silent by the phone
[G]but we'd always known there would come a [D]day
[D]the bus is warm and softly lit
[F]and a hundred people ride in it
[G]I guess I'm just another runa[D]way
Chours
[C]I'm gonna pick[G] it up
[C]I'm gonna pick[G] it up to[D]day
[C]I'm bound pack[G] it up
[C]I'm bound pack[G] it up and go [F]away[G]
 
 e|-2--2--3p2-2-3p2-2--2/5-5-5--6p5-5-6p-5--5/7--7--7--8p7--7--8p7-7-----12-|
 B|-3--3--3---3-3---3--3/6-6-6--5---6-6--6--6/8--8--8--8----8--8---8-----14-|
 G|-2--2--2---2-2---2--2/5-5-5--5---5-5--5--5/7--7--7--7----7--7---7-----12-|
 D|-0--0--0---0-0---0--0-------------------------------------------------0--|
 A|-------------------------------------------------------------------------|
 E|-------------------------------------------------------------------------|

| / slide up
| \ slide down
| h hammer-on
| p pull-off
| ~ vibrato
| + harmonic
| x Mute note
===========================================================================

Important: The song above is NOT stored on the Chordie server. The original song is hosted at www.guitartabs.cc. Chordie works as a search engine and provides on-the-fly formatting. Chordie does not index songs against artists'/composers' will. To remove this song please click here.

Text color:
Chord color:
Chord grids: 
Font size:    
Page size: 

C D F G
Rate #1 of 6 versions

Login - add to songbook

SHARE PAGE  



You need to log in to post comments