Guitar Tabs, Chords and Lyrics
Major upgrade!! After one year development the new version of Chordie is now online! Please give feedback.


In the Cold, Cold Night   The White Stripes

 
 [-------------------------------------]
 [-------------------------------------]
 [--0--5-5/8-8/10--12------------------]
 [-------------------------------------]

 


 


 come to me again in the cold cold night...


 

 
 [-----------------------------------]
 [-----------------------------------]
 [---------------------------5-------]
 [---5-5-5-5-----3-3-3-3-------------]

 


 


 in the cold cold night...you make me feel a little older...


 

 
 [-----------------------------------]
 [-----------------------------------]
 [--0--5-5/8-8/10--12----------------]
 [-----------------------------------]

 


 


 come to me again in the cold cold night...


 

 
 [-----------------------------------]
 [-----------------------------------]
 [----------------------------5------]
 [---5-5-5-5-----3-3-3-3-------------]

 


 


 i hear you walkin' by my front door...


 

 
 [-----------------------------------]
 [-----------------------------------]
 [--4/5------------------------------]
 [-----------------------------------]

 


 


 i hear the creakin' of the kitchen floor...


 

 
 [-----------------------------------]
 [-----------------------------------]
 [--4/5------------------------------]
 [-----------------------------------]

 


 


 i don't care what other people say...


 

 
 [-----------------------------------]
 [-----------------------------------]
 [--9/10-----------------------------]
 [-----------------------------------]

 


 


 i'm gonna love you anyway.....


 

 
 [-----------------------------------]
 [-----------------------------------]
 [--4/5------------------------------]
 [-----------------------------------]

 


 [ Tab from: bttp://www.guitartabs.cc/tabs/w/wbite_stripes/in_tbe_cold_cold_nigbt_btab_ver_3.btml ] 


 come to me again in the cold cold night...


 

 
 [-----------------------------------]
 [-----------------------------------]
 [---------------------------5-------]
 [---5-5-5-5-----3-3-3-3-------------]

 


 


 in the cold cold night...I can’t stand it any longer...


 

 
 [-------------------------------------]
 [-------------------------------------]
 [--0--5-5/8-8/10--12------------------]
 [-------------------------------------]

 


 


 come to me again in the cold cold night...


 

 
 [-----------------------------------]
 [-----------------------------------]
 [---------------------------5-------]
 [---5-5-5-5-----3-3-3-3-------------]

 


 


 in the cold cold night…


 

 
 [-----------------------------------]
 [-----------------------------------]
 [--0--5-5/8-8/10--12----------------]
 [-----------------------------------]

 


 


 and I know that you feel it too..


 

 
 [----------------------------------]
 [----------------------------------]
 [--5-8-12—12-12-10-10-7------------]
 [----------------------------------]

 


 


 when my skin turns into glue


 

 
 [--------------------------------]
 [--------------------------------]
 [--7-10-12-12-10-10-7------------]
 [--------------------------------]

 


 


 you will know that it’s warm inside


 


 

 
 [------------------------------------]
 [------------------------------------]
 [--7-10-12-12-12-10-10-7-------------]
 [------------------------------------]

 


 


 and you’ll come run to me


 


 

 
 [---------------------------------]
 [---------------------------------]
 [-----8-7-7-5-5-------------------]
 [-5-------------------------------]

 


 


 in the cold cold night


 


 

 
 [----------------------------------]
 [----------------------------------]
 [-5-5-8-5—3/5----------------------]
 [----------------------------------]

 


 


 in the cold cold night


 


 

 
 [----------------------------------]
 [----------------------------------]
 [--5-5-8-10-12---------------------]
 [----------------------------------]

 


 


 in the cold cold night.


 


 

 
 [----------------------------------]
 [----------------------------------]
 [--5-5-8-----5---------------------]
 [----------5-----------------------]


Important: The song above is NOT stored on the Chordie server. The original song is hosted at www.guitartabs.cc. Chordie works as a search engine and provides on-the-fly formatting. Chordie does not index songs against artists'/composers' will. To remove this song please click here.

This song is displayed as text-only. Transposing and tuning is only available for chordpro-songs.
Rate #1 of 9 versions

Login - add to songbook

SHARE PAGE  




You need to log in to post comments