Guitar Tabs, Chords and Lyrics
Major upgrade!! After one year development the new version of Chordie is now online! Please give feedback.


Little Cream Soda   The White Stripes

 
 e|------------------------|
 B|------------------------|
 G|--9----9----9-----------| Play 8 times
 D|--9----9----9----10--9--|
 A|--7----7----7----10--9--|
 E|-----------------8---7--|

 


 


 [Main]  

 
 e|-----------------8-7------------------------|
 B|---------------------------------------8-5--|
 G|--9--9-9--9-9-9---------9--9-9--9-9-9-------|
 D|--9--9-9--9-9-9---------9--9-9--9-9-9-------|
 A|--7--7-7--7-7-7---------7--7-7--7-7-7-------|
 E|--------------------------------------------|

 


 ^ ^


 |Check rhythm|


 |on this part|


 


 

 
 e|-----------------8-7------------------------|
 B|---------------------------------------8\---|
 G|--9--9-9--9-9-9---------9--9-9--9-9-9--12\--|
 D|--9--9-9--9-9-9---------9--9-9--9-9-9-------|
 A|--7--7-7--7-7-7---------7--7-7--7-7-7-------|
 E|--------------------------------------------|
 e|-----------------8-7------------------------|
 B|---------------------------------------8-5--|
 G|--9--9-9--9-9-9---------9--9-9--9-9-9-------|
 D|--9--9-9--9-9-9---------9--9-9--9-9-9-------|
 A|--7--7-7--7-7-7---------7--7-7--7-7-7-------|
 E|--------------------------------------------|
 e|-----------------8-7-------------------------|
 B|--------------------------------------8-8\---|
 G|--9--9-9--9-9-9-------- 9--9-9--9-9-9-12-12\-|
 D|--9--9-9--9-9-9---------9--9-9--9-9-9--------|
 A|--7--7-7--7-7-7---------7--7-7--7-7-7--------|
 E|---------------------------------------------|
 e|----------------7h8p7-0--------------7h8p7-0---------|
 B|---------------------------------------------5h8p5-0-|
 G|--9--9-9--9-9-9---------9--9-9--9-9-9----------------|
 D|--9--9-9--9-9-9---------9--9-9--9-9-9----------------|
 A|--7--7-7--7-7-7---------7--7-7--7-7-7----------------|
 E|-----------------------------------------------------|
 e|----------------7h8p7-0-----------------------|
 B|---------------------------------------8-8\---|
 G|--9--9-9--9-9-9---------9--9-9--9-9-9--12-12\-|
 D|--9--9-9--9-9-9---------9--9-9--9-9-9---------|
 A|--7--7-7--7-7-7---------7--7-7--7-7-7---------|
 E|----------------------------------------------|
 e|----------------7h8p7-0--------------7h8p7-0---------|
 B|---------------------------------------------5h8p5-0-|
 G|--9--9-9--9-9-9---------9--9-9--9-9-9----------------|
 D|--9--9-9--9-9-9---------9--9-9--9-9-9----------------|
 A|--7--7-7--7-7-7---------7--7-7--7-7-7----------------|
 E|-----------------------------------------------------|
 e|----------------7h8p7-0-7h8p7------------------------|
 B|----------------------------------------------8-8\---|
 G|--9--9-9--9-9-9----------------9--9-9--9-9-9--12-12\-|
 D|--9--9-9--9-9-9----------------9--9-9--9-9-9---------|
 A|--7--7-7--7-7-7----------------7--7-7--7-7-7---------|
 E|-----------------------------------------------------|

 


 


 Break


 

 
 e|------------------------|
 B|------------------------|
 G|--9----9----9-----------| Play 4 times
 D|--9----9----9----10--9--|
 A|--7----7----7----10--9--|
 E|-----------------8---7--|

 


 


 Chorus


 

 
 e|-----------------------------------|
 B|-----------------------------------|
 G|-----------------------------------| Play 8 times
 D|-----------------------------------|
 A|-------2/-3\-2---------------------|
 E|--0*---------------0--3-3--0--3--3-|

 


 


 [Main]  

 
 e|-----------------8-7------------------------|
 B|---------------------------------------8-5--|
 G|--9--9-9--9-9-9---------9--9-9--9-9-9-------|
 D|--9--9-9--9-9-9---------9--9-9--9-9-9-------|
 A|--7--7-7--7-7-7---------7--7-7--7-7-7-------|
 E|--------------------------------------------|
 e|-----------------8-7-------------------------|
 B|--------------------------------------8-8\---|
 G|--9--9-9--9-9-9-------- 9--9-9--9-9-9-12-12\-|
 D|--9--9-9--9-9-9---------9--9-9--9-9-9--------|
 A|--7--7-7--7-7-7---------7--7-7--7-7-7--------|
 E|---------------------------------------------|
 e|-----------------8-7------------------------|
 B|---------------------------------------8-5--|
 G|--9--9-9--9-9-9---------9--9-9--9-9-9-------|
 D|--9--9-9--9-9-9---------9--9-9--9-9-9-------|
 A|--7--7-7--7-7-7---------7--7-7--7-7-7-------|
 E|--------------------------------------------|
 e|-----------------8-7-------------------------|
 B|--------------------------------------8-8\---|
 G|--9--9-9--9-9-9-------- 9--9-9--9-9-9-12-12\-|
 D|--9--9-9--9-9-9---------9--9-9--9-9-9--------|
 A|--7--7-7--7-7-7---------7--7-7--7-7-7--------|
 E|---------------------------------------------|

 


 ( Tab from: http://www.guitartabs.cc/tabs/w/white_stripes/little_cream_soda_tab.html )


 

 
 e|----------------7h8p7-0--------------7h8p7-0---------|
 B|---------------------------------------------5h8p5-0-|
 G|--9--9-9--9-9-9---------9--9-9--9-9-9----------------|
 D|--9--9-9--9-9-9---------9--9-9--9-9-9----------------|
 A|--7--7-7--7-7-7---------7--7-7--7-7-7----------------|
 E|-----------------------------------------------------|
 e|----------------8h10p8-0----------------------|
 B|---------------------------------------8-8\---|
 G|--9--9-9--9-9-9---------9--9-9--9-9-9--12-12\-|
 D|--9--9-9--9-9-9---------9--9-9--9-9-9---------|
 A|--7--7-7--7-7-7---------7--7-7--7-7-7---------|
 E|----------------------------------------------|
 e|----------------7h8p7-0--------------7h8p7-0---------|
 B|---------------------------------------------5h8p5-0-|
 G|--9--9-9--9-9-9---------9--9-9--9-9-9----------------|
 D|--9--9-9--9-9-9---------9--9-9--9-9-9----------------|
 A|--7--7-7--7-7-7---------7--7-7--7-7-7----------------|
 E|-----------------------------------------------------|
 e|----------------8h10p8-0---------------8-8\---|
 B|---------------------------------------12-12\-|
 G|--9--9-9--9-9-9---------9--9-9--9-9-9---------|
 D|--9--9-9--9-9-9---------9--9-9--9-9-9---------|
 A|--7--7-7--7-7-7---------7--7-7--7-7-7---------|
 E|----------------------------------------------|

 


 


 Break


 

 
 e|------------------------|
 B|------------------------|
 G|--9----9----9-----------| Play 4 times
 D|--9----9----9----10--9--|
 A|--7----7----7----10--9--|
 E|-----------------8---7--|

 


 


 Chorus


 

 
 e|-----------------------------------|
 B|-----------------------------------|
 G|-----------------------------------| Play 4 times
 D|-----------------------------------|
 A|-------2/-3\-2---------------------|
 E|--0*---------------0--3-3--0--3--3-|

 


 


 Break


 

 
 e|---------------------|
 B|---------------------|
 G|---------------------| Play 7 times
 D|---------------------|
 A|---------------------|
 E|--0--0--0--0-0--3----|

 


 x x x x x x


 


 

 
 e|-----------|----------------|
 B|-----------|----------------|
 G|-----------|--------------9-|
 D|-----------|--9--10--9----9-|
 A|-----------|--9--10--9----7-|
 E|--0--0--0--|--7--8---7------|

 


 x x x


 ^ ^


 |Play 8 times |


 


 Outro


 

 
 e|-----------------8-7------------------------|
 B|---------------------------------------8-5--|
 G|--9--9-9--9-9-9---------9--9-9--9-9-9-------|
 D|--9--9-9--9-9-9---------9--9-9--9-9-9-------|
 A|--7--7-7--7-7-7---------7--7-7--7-7-7-------|
 E|--------------------------------------------|
 e|-----------------8-7------------------------|
 B|---------------------------------------8\---|
 G|--9--9-9--9-9-9---------9--9-9--9-9-9--12\--|
 D|--9--9-9--9-9-9---------9--9-9--9-9-9-------|
 A|--7--7-7--7-7-7---------7--7-7--7-7-7-------|
 E|--------------------------------------------|
 e|-----------------8-7------------------------|
 B|---------------------------------------8-5--|
 G|--9--9-9--9-9-9---------9--9-9--9-9-9-------|
 D|--9--9-9--9-9-9---------9--9-9--9-9-9-------|
 A|--7--7-7--7-7-7---------7--7-7--7-7-7-------|
 E|--------------------------------------------|
 e|-----------------8-7-------------------------|
 B|--------------------------------------8-8\---|
 G|--9--9-9--9-9-9-------- 9--9-9--9-9-9-12-12\-|
 D|--9--9-9--9-9-9---------9--9-9--9-9-9--------|
 A|--7--7-7--7-7-7---------7--7-7--7-7-7--------|
 E|---------------------------------------------|
 e|----------------7h8p7-0--------------7h8p7-0---------|
 B|---------------------------------------------5h8p5-0-|
 G|--9--9-9--9-9-9---------9--9-9--9-9-9----------------|
 D|--9--9-9--9-9-9---------9--9-9--9-9-9----------------|
 A|--7--7-7--7-7-7---------7--7-7--7-7-7----------------|
 E|-----------------------------------------------------|
 e|----------------7h8p7-0------------------------------|
 B|----------------------------------------------8------|
 G|--9--9-9--9-9-9----------------9--9-9--9-9-9--12\----|
 D|--9--9-9--9-9-9----------------9--9-9--9-9-9---------|
 A|--7--7-7--7-7-7----------------7--7-7--7-7-7---------|
 E|-----------------------------------------------------|
 e|----------------7h8p7-0---------------------------------|
 B|----------------------------------------3h5p3-0-5h8p5-0-|
 G|--9--9-9--9-9-9---------9--9-9--9-9-9-------------------|
 D|--9--9-9--9-9-9---------9--9-9--9-9-9-------------------|
 A|--7--7-7--7-7-7---------7--7-7--7-7-7-------------------|
 E|--------------------------------------------------------|
 e|---------------------------------|
 B|-----------------3h5p3-0-5h8p5-0-|
 G|---9-9--9-9-9--------------------| Play 3 times
 D|---9-9--9-9-9--------------------|
 A|---7-7--7-7-7--------------------|
 E|---------------------------------|

 


 


 End on


 

 
 e|------|
 B|------|

 


 G|--9---|


 D|--9---|


 A|--7---|


 

 
 E|------|

 


 


 Then


 

 
 e|-----------|
 B|-----------|
 G|---------9-| Play 6 times
 D|--10--9--9-|
 A|--10--9--7-|
 E|--8---7----|


Important: The song above is NOT stored on the Chordie server. The original song is hosted at www.guitartabs.cc. Chordie works as a search engine and provides on-the-fly formatting. Chordie does not index songs against artists'/composers' will. To remove this song please click here.

This song is displayed as text-only. Transposing and tuning is only available for chordpro-songs.
Rate #1 of 2 versions

Login - add to songbook

SHARE PAGE  



You need to log in to post comments