Guitar Tabs, Chords and Lyrics
Server problems seems to be fixed. Chordie has been experiencing problems with songs disappearing. These issues now seems to be fixed, but still verifying the fix. If you find anything strange, please email admin@chordie.com.


Screwdriver  The White Stripes

The White Stripes - Screwdriver
Chords
A5: 577xxx
G5: 355xxx
C5: x355xx
D5: x577xx
D5/A: 5577xx
Intro: Feedback
Break (Play 2 Times)
 
 |---------------------------------------|
 |-------------5---5--7-5-7b8-7-5--------|
 |-------------5---5--7-5-7b8-7-5-7-5----|
 |-7--7--5--7----7--------------------7--|
 |-7--7--5--7----------------------------|
 |-5--5--3--5----------------------------|

Chords: A5 A5 G5 A5 G5 A5~ G5~
Verse:
[A5]Tuesday morning now[G5]
I gotta have somewhere to go[A5]
I call up Tommy now[G5]
I call him on the telephone[A5]
Won't you wake up and come with me, now[G5]
I'm going to the pawn and loan[A5]
Walkin' down thirty-three[G5]
Walkin' down thirty-'o[A5] [C5]
Yeah!
Break
Verse 2:
Well, what am I supposed to think?
I drop a nickel in the sink
I love people like a brother, now
But I'm not gonna be their mother, now
What if someone walked up to me and
Like an apple cut right through me?
I'm not just gonna stand there grinnin'
'Cause I'm not the one who's sinnin' -- screw[A5]driver[G5] [A5]
Hoo, hoo[G5]
Hooo, hoo
( Tab from: http://www.guitartabs.cc/tabs/w/white_stripes/screwdriver_crd.html )
Break 2
 
 |----------------------------------------------|
 |-------------------------------7b8-7p5-7p5----|
 |-------------------------------7b8-7p5-7p5----|
 |-7-7-7--7-7-7--7-7-7-----7-7-7-------------7--|
 |-7-7-7--7-7-7--7-7-7-----7-7-7----------------|
 |-5-5-5--5-5-5--5-5-5-----5-5-5----------------|

Break
Verse 3:
Now that you have heard my story, now
I've got a little ending to it, now
Whenever you go out alone
Take a little dog a bone
And think about your little sister
And then you got to drive it home -- screw[A5]driver[C5] [A5] [C5]
Bridge:
[A5]I got a little feeling goin' now[G5]
I got a little feeling goin' now[A5]
I got a little feeling goin' now[G5]
I got a little feeling goin' now[A5]
I got a little feeling goin' now[G5]
I got a little feeling goin' now[A5]
I got a little feeling goin' now[C5]
I got a little feeling goin' now[A5]
I got a little feeling goin' now[C5]
I got a little feeling goin' now[A5]
I got a little feeling goin' now[C5]
Now! Now!
Now!
 
 |-------------------------------------|
 |-------------5---5-7p5-7b8----7p5----|
 |-------------5---5-7p5-7b8-7~-7p5----|
 |-7--7--5--7----7------------------7--|
 |-7--7--5--7--------------------------|
 |-5--5--3--5--------------------------|

Break
[A5] [A5] [A5]  
[D5/A] [A5] [A5]  
[D5/A] 

Important: The song above is NOT stored on the Chordie server. The original song is hosted at www.guitartabs.cc. Chordie works as a search engine and provides on-the-fly formatting. Chordie does not index songs against artists'/composers' will. To remove this song please click here.

Text color:
Chord color:
Chord grids: 
Font size:    
Page size: 

A5 C5 D5/A G5
Rate #1 of 6 versions

Jango Player

Login - add to songbook

SHARE PAGE  



You need to log in to post comments