Guitar Tabs, Chords and Lyrics
Server problems seems to be fixed. Chordie has been experiencing problems with songs disappearing. These issues now seems to be fixed, but still verifying the fix. If you find anything strange, please email admin@chordie.com.


Mystery  Wipers

Intro:
A* A? F#m B
 
 e|--5-5-5-5--5-5-5-5--5-5-5-5--2-2--2-2-2-----|
 B|--5-5-5-5--5-5-5-5--5-5-5-5--2-2--3-3-3-----|
 G|--6-6-6-6--6-6-6-6--6-6-6-6--2-2--3-3-3-----| x2
 D|--7-7-7-7--7-7-7-7--7-7-7-7--4-4--3-3-3-----|
 A|--7-7-7-7--7-7-7-7--6-6-6-6--4-4--2-2-2-----|
 E|--5-5-5-5--5-5-5-5--5-5-5-5--2-2--2-2-2-----|

Verse 1:
[E5] You think I'm[F#5] Retrospective
[G#5] Of someone you [A5] used to k[B5]now
[E5] I think it'[F#5]s indecision
[G#5] That leaves us such[A5] a long way to [B5]go
Pre-Chorus 1:
A*
But you say it's not that way
A? F#m B
Try to make amends so it will never end
Chorus:
[A5] You don't care about it,[F#5] you don't care about it
[A5] You don't care about it,[F#5] you don't care about it
[A] but can't you [B]see, it's a [A]myste[F#m]ry
And then:
B*
 
 e|---/7-7-7-7--|
 B|---/7-7-7-7--|
 G|---/8-8-8-8--|
 D|---/9-9-8-8--|
 A|---/9-9-9-9--|
 E|---/7-7-7-7--|

I've always tried to wonder
How it must feel to be real
In one door out the other undercover
Do you think it shows
Pre-chorus 2:
A* A*
 
 e|--5--------------5-------------|
 B|--5--------------5-------------|
 G|--6--------------6-------------|
 D|--7--------------7-------------|
 A|--7--------------7-------------|
 E|--5--------------5-------------|

But you say it's not that way
A?
 
 e|--5--------------------|
 B|--5--------------------|
 G|--6--------------------|
 D|--7--------------------|
 A|--6--------------------|
 E|--x--------------------|

Try to make amends so
it[F#m] will never e[B]nd
Chorus:
[A5] You don't care about it,[F#5] you don't care about it
[A5] You don't care about it,[F#5] you don't care about it
[A] but can't you [B]see, it's a [A]myste[F#m]ry
Outro:
B* F#m B* F#m B* E
 
 e|--/7-7-7-7-7\2-2-2-2-2/7-7-7-7-7\2-2-2-2-2/7-7-7-7-7--x----|
 B|--/7-7-7-7-7\2-2-2-2-2/7-7-7-7-7\2-2-2-2-2/7-7-7-7-7--0----|
 G|--/8-8-8-8-8\2-2-2-2-2/8-8-8-8-8\2-2-2-2-2/8-8-8-8-8--1----|
 D|--/9-9-9-9-9\4-4-4-4-4/9-9-9-9-9\4-4-4-4-4/9-9-9-9-9--2----|
 A|--/9-9-9-9-9\4-4-4-4-4/9-9-9-9-9\4-4-4-4-4/9-9-9-9-9--2----|
 E|--/7-7-7-7-7\2-2-2-2-2/7-7-7-7-7\2-2-2-2-2/7-7-7-7-7--0----|

End.
A A? A* A5 B
 
 e|--0--| e|--5--| e|--5--| e|--x--| e|--2--|
 B|--2--| B|--5--| B|--5--| B|--x--| B|--3--|
 G|--2--| G|--6--| G|--6--| G|--x--| G|--3--|
 D|--2--| D|--7--| D|--7--| D|--7--| D|--3--|
 A|--0--| A|--6--| A|--7--| A|--7--| A|--2--|
 E|--x--| E|--x--| E|--5--| E|--5--| E|--2--|

B5 B* E5 E G#5
 
 e|--x--| e|--7--| e|--x--| e|--x--| e|--x--|
 B|--x--| B|--7--| B|--x--| B|--0--| B|--x--|
 G|--x--| G|--8--| G|--x--| G|--1--| G|--x--|
 D|--9--| D|--9--| D|--2--| D|--2--| D|--6--|
 A|--9--| A|--9--| A|--2--| A|--2--| A|--6--|
 E|--7--| E|--7--| E|--0--| E|--0--| E|--4--|

[F#m] [F#5]  
 
 e|--2--| e|--x--|
 B|--2--| B|--x--|
 G|--2--| G|--x--|
 D|--4--| D|--4--|
 A|--4--| A|--4--|
 E|--2--| E|--2--|

By Walter
Comments to w3681@live.com

Important: The song above is NOT stored on the Chordie server. The original song is hosted at www.guitartabs.cc. Chordie works as a search engine and provides on-the-fly formatting. Chordie does not index songs against artists'/composers' will. To remove this song please click here.

Text color:
Chord color:
Chord grids: 
Font size:    
Page size: 

A A5 B B5 E5 F#5 F#m G#5
Rate #2 of 5 versions

Jango Player

Login - add to songbook

SHARE PAGE  




You need to log in to post comments