Guitar Tabs, Chords and Lyrics
Server problems seems to be fixed. Chordie has been experiencing problems with songs disappearing. These issues now seems to be fixed, but still verifying the fix. If you find anything strange, please email admin@chordie.com.


Potential Suicide   Wipers

 
 G-|--------------------|
 D-|o------------------o|
 A-|o------------------o|
 E-|---2--0-2-3-3-3-0---|
 E-----------
 B-----------

 


 [G--11-11-11-]  


 [D--11-11-11-]  


 

 
 A---9--9--9-
 E-----------

 


 It's such a long way down


 


 

 
 E--------
 B--------
 G--------

 


 [D--2-2-2-]  


 [A--2-2-2-]E--0-0-0-


 Maybe I should try a floor below


 ( Tab from: http://www.guitartabs.cc/tabs/w/wipers/potential_suicide_tab.html )


 

 
 E--------
 B--------

 


 [G--9-9-9-]  


 [D--9-9-9-]  


 [A--7-7-7-]  


 

 
 E--------

 


 A softer landing might just ease the pain


 


 

 
 E--------
 B--------
 G--------

 


 [D--4-4-4-]  


 [A--4-4-4-]  


 [E--2-2-2-]Being a loser is such a drag


 


 Getting so depressed


 Getting so depressed


 Getting so depressed


 Getting so depressed


 


 Outro:


 

 
 E-----------------------------------------------
 B-----------------------------------------------
 G---------------------------------5-5-5--7-7-7--
 D--4-2-4-5--2-4-2-4-5--2-4-2-4-5--5-5-5--7-7-7--
 A--4-2-4-5--2-4-2-4-5--2-4-2-4-5--3-3-3--5-5-5--
 E--2-0-2-3--0-2-0-2-3--0-2-0-2-3----------------


Important: The song above is NOT stored on the Chordie server. The original song is hosted at www.guitartabs.cc. Chordie works as a search engine and provides on-the-fly formatting. Chordie does not index songs against artists'/composers' will. To remove this song please click here.

This song is displayed as text-only. Transposing and tuning is only available for chordpro-songs.
Rate #1 of 3 versions

Login - add to songbook

SHARE PAGE  



You need to log in to post comments