Guitar Tabs, Chords and Lyrics
Server problems seems to be fixed. Chordie has been experiencing problems with songs disappearing. These issues now seems to be fixed, but still verifying the fix. If you find anything strange, please email admin@chordie.com.


After the Suffering   With One Last Breath

 
 -------------------------------------------------------------------------------

 


 After the Suffering - With One Last Breath


 

 
 -------------------------------------------------------------------------------

 


 


 Tabbed By : sascha2495


 e-mail: saschafuentes@googlemail.com


 


 Yeah so this is my first tab so i apologize for any errors


 If you find an error please write me and ill fix it


 well i hope you like the tab


 for some covers visit my youtube channel: sascha2495


 


 Tuning is drop d :D


 


 0:03


 

 
 G|---------------------------------------------------------------------------|
 D|---------------------------------------------------------------------------|
 A|----------------------------------------------6----------------------------|
 D|-----------------------------------------------0-00-0000--0-0-00-00000000--|
 G|---------------------------------------------------------------------------|
 D|---------------------------------------------------------------------------|
 A|---------------------------------------------------------------------------|
 D|555-5---333-6-----9-7-5-7-11-9--7------------------------------------------|
 G|---------------------------------------------------------------------------|
 D|------------------------------------------2-2------------------------------|
 A|--------3---------------------------3------------4-4-----------------------|
 D|6-0-5-0----0-00-00000-------6-0-5-0----333-3--000-0------------------------|
 G|---------------------------------------------------------------------------|
 D|------------------------------------------2-2------------------------------|
 A|--------3---------------------------3------------4-4-----------------------|
 D|6-0-5-0----0-00-00-00-------6-0-5-0----333-3--000-0------------------------|
 G|---------------------------------------------------------------------------|
 D|---------------------------------------------------------------------------|
 A|---------------------------------------------------------------------------|
 D|000--0-0---000--3-2-0-5-4-0---000--0-0--000-000----------------------------|
 G|---------------------------------------------------------------------------|
 D|---------------------------------------------------------------------------|
 A|---------------------------------------------------------------------------|
 D|66666666-6666-8888-1010101010101010/13131313-10101010-6666666p0-0h9--------|
 G|---------------------------------------------------------------------------|
 D|---------------------------------------------------------------------------|
 A|---------------------------------------------------------------------------|
 D|-00-0000-0-0-00-00000000---------------------------------------------------|
 G|---------------------------------------------------------------------------|
 D|---------------------------------------------------------------------------|
 A|---------------------------------------------------------------------------|
 D|66666666-6666-8888-1010101010101010/13131313-10101010-6666666p0-0h9--------|
 G|---------------------------------------------------------------------------|
 D|---------------------------------------------------------------------------|
 A|---------------------------------------------------------------------------|
 D|-00-0000-0-0-00-00000000---------------------------------------------------|
 G|---------------------------------------------------------------------------|
 D|---------------------------------------------------------------------------|
 A|---------------------------------------------------------------------------|
 D|0~-0~-00~-0000~-0~-0~-00~-00000000-----------------------------------------|

 


 ( Tab from: http://www.guitartabs.cc/tabs/w/with_one_last_breath/after_the_suffering_btab.html )


 

 
 G|---------------------------------------------------------------------------|
 D|---------------------------------------------------------------------------|
 A|---------------------------------------------------------------------------|
 D|[guitar till 1:29]---000000000000000000000000-0--000-----------------------|
 G|---------------------------------------------------------------------------|
 D|---------------------------------------------------------------------------|
 A|---------------------------------------------------------------------------|
 D|000-303-000-303--000-000-00001111------------------------------------------|
 G|---------------------------------------------------------------------------|
 D|---------------------------------------------------------------------------|
 A|---------------------------------------------------------------------------|
 D|000-303-000-303--000---00--------------------------------------------------|
 G|---------------------------------------------------------------------------|
 D|---------------------------------------------------------------------------|
 A|---------------------------------------------------------------------------|
 D|000-101-000-101--000-0-000-------------------------------------------------|
 G|---------------------------------------------------------------------------|
 D|---------------------------------------------------------------------------|
 A|---------------------------------------------------------------------------|
 D|000-101-000-101--0099------------------------------------------------------|
 G|---------------------------------------------------------------------------|
 D|---------------------------------------------------------------------------|
 A|---------------------------------------------------------------------------|
 D|99999999-9999-9/121212-55555555-5555-5-7-7---------------------------------|
 G|---------------------------------------------------------------------------|
 D|---------------------------------------------------------------------------|
 A|---------------------------------------------------------------------------|
 D|99999999-9999-9-12-12--55-55-55-55-----------------------------------------|

 


 


 Breeaaakdoooown whoooooo!!!


 

 
 G|---------------------------------------------------------------------------|
 D|---------------------------------------------------------------------------|
 A|---------------------------------------------------------------------------|
 D|00000----0000000----00000----00000000--1-1-1-------------------------------|
 G|---------------------------------------------------------------------------|
 D|---------------------------------------------------------------------------|
 A|-----------------------------fast ones-------------------------------------|
 D|00000--00000----000000000-[000000000000000000]-----------------------------|
 G|---------------------------------------------------------------------------|
 D|---------------------------------------------------------------------------|
 A|---------------------------------------------------------------------------|
 D|66666666-6666-8888-1010101010101010/13131313-10101010-6666666p0-0h9--------|
 G|---------------------------------------------------------------------------|
 D|---------------------------------------------------------------------------|
 A|---------------------------------------------------------------------------|
 D|0-00-0000-0-0-00-00000000--------------------------------------------------|
 G|---------------------------------------------------------------------------|
 D|---------------------------------------------------------------------------|
 A|---------------------------------------------------------------------------|
 D|66666666-6666-8888-1010101010101010/13131313-10101010-6666666p0-0h9--------|
 G|---------------------------------------------------------------------------|
 D|---------------------------------------------------------------------------|
 A|---------------------------------------------------------------------------|
 D|0-00-0000-0-0-00-00000000----0~-00~-0000~-0~-0~-00~-00000000x--------------|


Important: The song above is NOT stored on the Chordie server. The original song is hosted at www.guitartabs.cc. Chordie works as a search engine and provides on-the-fly formatting. Chordie does not index songs against artists'/composers' will. To remove this song please click here.

This song is displayed as text-only. Transposing and tuning is only available for chordpro-songs.
Rate #1 of 1 versions

Login - add to songbook

SHARE PAGE  



You need to log in to post comments