Guitar Tabs, Chords and Lyrics
Server problems seems to be fixed. Chordie has been experiencing problems with songs disappearing. These issues now seems to be fixed, but still verifying the fix. If you find anything strange, please email admin@chordie.com.


Heart Full of Soul  The Yardbirds

Date: Thu, 14 Nov 1996 14:50:52 -0500
From: Andrew Rogers
Subject: ./y/yardbirds/heart_full_of_soul.crd
"Heart Full Of Soul"
(Graham Gouldman)
Intro:
(fuzz guitar, 4X; bongos enter 2nd time, full band 3rd)
[Dm]v v v v v v v v
 
 -----------------|-----------------
 -----------------|-----------------
 -----7---7-5-7-9-|-----7---5-7-5-7-
 -0---------------|-----------------
 -----------------|-----------------
 -----------------|-----------------

Verse 1:
[Dm]Sick at heart and l[G]onely [Bb] deep in dark desp[Dm]air
[Dm]Thinking one thought o[G]nly [Bb] where is she, tell me w[Dm]here
[Dm]And if she says [G]to you [Bb] she don't love [Dm]me
Dm G Bb Dm [N.C.]
Just give her my message tell her of my plea
Chorus:
And I k[D]now, if she h[F]ad me b[G]ack ag[D]ain
Oh, I would [Bb]never m[F]ake her s[D]ad
I got A h[A]ea-A-A...[G]A-A-art full of s[Dm]oul
[repeat intro riff 2X; full band enters 2nd time] 
Guitar solo (half-length verse):
[Dm]v v v v [G]v v v v
 
 -------------------------|-------------------------
 -------------------------|-------------------------
 -------------10-12----10-|-------------------------
 -------12-12-------------|----12-------------------
 -------------------------|-------------------------
 -------------------------|-------------------------

^^ 1/4-tone bend
[Bb]v v v v [Dm]v v v v
 
 -------------------------|----------------10-------
 -------------------------|----------13-------------
 -------------10-12---b14-|-------------------------
 -------12-12-------------|-------------------------
 -------------------------|-------------------------
 -------------------------|-------------------------

[Dm]v v v v [G]v v v v
 
 -------------------------|-------------------------
 -------------------------|-------------------------
 -------------10-12----10-|-------------------------
 -------12-12-------------|----12-------------------
 -------------------------|-------------------------
 -------------------------|-------------------------

^^ 1/4-tone bend
Bb Dm [N.C.]
v v v v v v v v
 
 -------------------------|-------------------------
 -------------------------|-------------------------
 -------------10--12--10--|b12---b12----------------
 ----11-12-12-------------|-------------------------
 -------------------------|-------------------------
 -------------------------|-------------------------

^^^^^^^^^^ qtr-note triplet
[repeat cborus] 
[repeat intro riff 2X; full band enters 2nd time] 
Verse 2:
She's been gone such a long time
Longer than I can bear
But if she says she wants me
Tell her that I'll be there
And if she says to you
She don't love me
Just give her my message
Tell her of my plea
[repeat cborus] 
[repeat intro riff 3X (bongos enter 2nd time); end cold on Dm] 
Note: I saw the Yardbirds perform this on some TV show and Chris Dreja was
playing the acoustic rhythm part on a 12-string tuned down a whole tone:
verse: Em A C Em (4X)
chorus: E G A E
[C] [G] [E]  
[B] [A] [Em]  
-- another ace 60's tab from Andrew Rogers

Important: The song above is NOT stored on the Chordie server. The original song is hosted at www.guitartabs.cc. Chordie works as a search engine and provides on-the-fly formatting. Chordie does not index songs against artists'/composers' will. To remove this song please click here.

Text color:
Chord color:
Chord grids: 
Font size:    
Page size: 

A B Bb C D Dm E Em F G
Rate #2 of 11 versions

Login - add to songbook

SHARE PAGE  




You need to log in to post comments