Guitar Tabs, Chords and Lyrics
Server problems seems to be fixed. Chordie has been experiencing problems with songs disappearing. These issues now seems to be fixed, but still verifying the fix. If you find anything strange, please email admin@chordie.com.


Afraid  Yellowcard

BY f_sario@yahoo.com
Lucena,Phils...
f_sario@yahoo.com
Cp #-09283150081
SHC(BSN) Lucena
http://profiles.friendster.com/37158911
Intro-
[G1]  
 
 |-------------------------------------------------|
 |-------------------------------------------------|
 |-------------------------------------------------|
 |-----7-----4-6-4-----4-----4-----4-----6---6-----|
 |-7---7--7--7-7-7--7--7--7--7--7--7--7--7-7-7-----|
 |-0------0---------0-----0-----0-----0----0-------|
 |-------------------------------------------------|
 |-------------------------------------------------|
 |-------------------------------------------------|
 |-----7-----4-6-4-----4-----4-----4---------------|
 |-7---7--7--7-7-7--7--7--7--7--7--7--7--7--7------|
 |-0------0---------0-----0-----0-----0---0--------|

Verse -2X
[G1]  
 
 |-------------------------------------------------|
 |-------------------------------------------------|
 |-------------------------------------------------|
 |-----7-----4-6-4-----4-----4-----4-----6---6-----|
 |-7---7--7--7-7-7--7--7--7--7--7--7--7--7-7-7-----|
 |-0------0---------0-----0-----0-----0----0-------|
 |-------------------------------------------------|
 |-------------------------------------------------|
 |-------------------------------------------------|
 |-----7-----4-6-4-----4-----4-----4---------------|
 |-7---7--7--7-7-7--7--7--7--7--7--7--7--7--7------|
 |-0------0---------0-----0-----0-----0---0--------|
 |-------------------------------------------------|
 |-------------------------------------------------|
 |-------------------------------------------------|
 |-----7-----4-6-4-----4-----4-----4-----6--6------|
 |-4---4--4--4-4-4--4--4--4--4--4--4--4--4--4------|
 |-0------0---------0-----0-----0-----0---0--------|
 |-------------------------------------------------|
 |-------------------------------------------------|
 |-------------------------------------------------|
 |-----7-----4-6-4-----4-----4-----4---------------|
 |-0---0--0--0-0-0--0--0--0--0--0--0--0--7--7------|
 |-0------0---------0-----0-----0-----0---0--------|

Refrain-
[G1]  
 
 |-------------------------------------------------|
 |-------------------------------------------------|
 |----------------------66666666--88888888---------|
 |-77777777---99999999--66666666--88888888---------|
 |-77777777---99999999--44444444--66666666---------|
 |-55555555---77777777-----------------------------|

[G2]  
 
 |----------------------|---------------------------|
 |----------------------|---------------------------|
 |-13131313131313131313-|-111111111111111--88888888-|
 |-x-x-x-x-x-x-x-x-x-x--|-x-x-x-x-x-x-x-x--xxxxxxxx-|
 |-11111111111111111111-|-9-9-9-9-9-9-9-9--66666666-|
 |----------------------|---------------------------|

Chorus-
[G1]  
 
 |-------------------------------------------------|
 |-------------------------------------------------|
 |-9999999--4444444--------------------------------|
 |-9999999--4444444--4444444--7777777--------------|2x
 |-7777777--2222222--4444444--7777777--------------|
 |-------------------2222222--5555555--------------|

[G2]  
 
 |-------------------------------------------------|
 |-------------------------------------------------|
 |-9999999--8888888--9999999---9999999-------------|
 |-xxxxxxx--xxxxxxx--xxxxxxx---xxxxxxx-------------|2x
 |-7777777--6666666--7777777---7777777-------------|
 |-------------------------------------------------|

Guitar=Violin
 
 |-0-4-0454-|-0-4-0-4-0-454-|-0-4-0-4-0-454-| |-0-0-0-7--| |--0-5-4---|
 |----------|---------------|---------------| |----------| |----------|
 |----------|---------------|---------------| |----------| |----------|
 |----------|---------------|---------------|2x |----------|4x |----------|
 |----------|---------------|---------------| |----------| |----------|
 |----------|---------------|---------------| |----------| |----------|

Interlude1
[G1]  
 
 |-------------------------------------------------|
 |-------------------------------------------------|
 |-------------------------------------------------|
 |--2--2---222---2--2--2--222----------------------|2x
 |--2--2---222---2--2--2--222----------------------|
 |--0--0---000---0--0--0--000----------------------|

[G2]  
 
 |-------------------------------------------------|
 |-------------------------------------------------|
 |-14-13--11/-13-/11--11-11-11---13-13-13----------|
 |-x--x---x---x---x---x--x--x----x--x--x-----------|
 |-12-11--9-/-11-/9---9--9--9----11-11-11----------|
 |-------------------------------------------------|
 |----------------------------------------------|
 |----------------------------------------------|
 |-14-13--11/-13-/11--11-11-11---9-9-9----------|
 |-x--x---x---x---x---x--x--x----x-x-x----------|
 |-12-11--9-/-11-/9---9--9--9----7-7-7----------|
 |----------------------------------------------|

Verse2
(many strokes } heheheh...
[G1]  
 
 |--------|---------|----------|-----------|
 |--------|---------|----------|-----------|
 |---9----|---9-----|----6-----|-----------|
 |---9----|---9-----|----6-----|----7------|
 |---7----|---7-----|----4-----|----7------|
 |--------|---------|----------|----5------|

(many strokes } heheheh...
[G2]  
 
 |--------|---------|----------|-----------|
 |--------|---------|----------|-----------|
 |---13---|----7----|----9-----|----9------|
 |---x----|----x----|----x-----|----x------|
 |---11---|----9----|----7-----|----7------|
 |--------|---------|----------|-----------|

[G1]  
 
 |--------|---------|----------|-----------|
 |--------|---------|----------|-----------|
 |---9----|---9-----|----6-----|-----------|
 |---9----|---9-----|----6-----|----7------|
 |---7----|---6-----|----4-----|----7------|
 |--------|---------|----------|----5------|

[G2]  
 
 |--------|---------|----------|-----------|
 |--------|---------|----------|-----------|
 |---13---/----7----/----9-----|----11-----|
 |---x----/----x----/----x-----|----x------|
 |---11---/----9----/----7-----|----9------|
 |--------|---------|----------|-----------|

( Tab from: http://www.guitartabs.cc/tabs/y/yellowcard/afraid_tab.html )
Repeat Refrain
Chorus2
[G1]  
 
 |-------------------------------------------------|
 |-------------------------------------------------|
 |-9999999--4444444--------------------------------|
 |-9999999--4444444--4444444--7777777--------------|2x
 |-7777777--2222222--4444444--7777777--------------|
 |-------------------2222222--5555555--------------|

[G1]  
 
 |-------------------------------------------------|
 |-------------------------------------------------|
 |-9999999--8888888--9999999---9999999-------------|
 |-xxxxxxx--xxxxxxx--xxxxxxx---xxxxxxx-------------|
 |-7777777--6666666--7777777---7777777-------------|
 |-------------------------------------------------|
 |-------------------------------------------------|
 |-------------------------------------------------|
 |-9999999--8888888--9999999---9999999-------------|
 |-xxxxxxx--xxxxxxx--xxxxxxx---xxxxxxx-------------|
 |-7777777--6666666--7777777---7777777-------------|
 |-------------------------------------------------|

Violin
 
 |-0-4-0454-|-0-4-0-4-0-454-|-0-4-0-4-0-454-| |-0-0-0-7--| |--0-5-4---|
 |----------|---------------|---------------| |----------| |----------|
 |----------|---------------|---------------| |----------| |----------|
 |----------|---------------|---------------|2x |----------|4x |----------|
 |----------|---------------|---------------| |----------| |----------|
 |----------|---------------|---------------| |----------| |----------|

Bridge-
[G1]  
 
 |-----------|-----------|------------|------------|
 |-----------|-----------|------------|------------|
 |-666666666-|-999999999-|-22222222222|-4444444444-|
 |-666666666-|-999999999-|-2222222222-|-4444444444-|4x
 |-444444444-|-777777777-|-0000000000-|-2222222222-|
 |-444444444-|-777777777-|-0000000000-|-2222222222-|

[G2]|
 
 |--------|------------------------------|
 |--------|------------------------------|
 |---13---|----16---14----13----11-------|
 |---x----|----x--s-x---s-x---s-x--------|4x
 |---11---|----14---12----11----9--------|
 |--------|------------------------------|

Birdge2
[G1]No
Distortion
 
 |-------------------------------------------------|
 |-------------------------------------------------|
 |-9999999--4444444--------------------------------|
 |-9999999--4444444--4444444--7777777--------------|
 |-7777777--2222222--4444444--7777777--------------|
 |-------------------2222222--5555555--------------|

G2- Palm Muted
 
 |-----------------------------------------|
 |-----------------------------------------|
 |---9----9-11-9----9---9---9-11-9---9-----|
 |-9---9----------9---9---9--------9-------|
 |-----------------------------------------|
 |-----------------------------------------|
 |-----------------------------------------|
 |-----------------------------------------|
 |---7---7-9-7------7---7---7-9-7----7-----|
 |-9---9----------9---9---9--------9-------|
 |-----------------------------------------|
 |-----------------------------------------|
 |-----------------------------------------|
 |-----------------------------------------|
 |---6---6-7-6------6---6---6-7-6----6-----|
 |-7---7----------7---7---7--------7-------|
 |-----------------------------------------|
 |-----------------------------------------|
 |-----------------------------------------------------------------------------|
 |-----------------------------------------------------------------------------|
 |---9----9-11-9----9---9---9-11-9---9---9---9-11-9--9--9--9-11-9--9--9-9-11-9-|
 |-9---9----------9---9---9--------9---9---9-------9---9--9------9--9--9-------|
 |-----------------------------------------------------------------------------|
 |-----------------------------------------------------------------------------|

Chorus-
[G1]  
 
 |-------------------------------------------------|
 |-------------------------------------------------|
 |-9999999--4444444--------------------------------|
 |-9999999--4444444--4444444--7777777--------------|2x
 |-7777777--2222222--4444444--7777777--------------|
 |-------------------2222222--5555555--------------|

[G1]  
 
 |-------------------------------------------------|
 |-------------------------------------------------|
 |-9999999--8888888--9999999---9999999-------------|
 |-xxxxxxx--xxxxxxx--xxxxxxx---xxxxxxx-------------|
 |-7777777--6666666--7777777---7777777-------------|
 |-------------------------------------------------|
 |-------------------------------------------------|
 |-------------------------------------------------|
 |-9999999--1111111111111------6666666---9999999---|
 |-xxxxxxx--x-x-x-x-x-x-x------xxxxxxx---xxxxxxx---|
 |-7777777--9-9-9-9-9-9-9------4444444---7777777---|
 |-------------------------------------------------|

Violin
 
 |-0-4-0454-|-0-4-0-4-0-454-|-0-4-0-4-0-454-| |-0-0-0-7--| |--0-5-4---|
 |----------|---------------|---------------| |----------| |----------|
 |----------|---------------|---------------| |----------| |----------|
 |----------|---------------|---------------|2x |----------|4x |----------|
 |----------|---------------|---------------| |----------| |----------|
 |----------|---------------|---------------| |----------| |----------|

Outro 2x
[G1]  
 
 |-------------------------------------------------|
 |-------------------------------------------------|
 |-------------------------------------------------|
 |--2--2---222---2--2--2--222----------------------|2x
 |--2--2---222---2--2--2--222----------------------|
 |--0--0---000---0--0--0--000----------------------|

[G2]  
 
 |-------------------------------------------------|
 |-------------------------------------------------|
 |-14-13--11/-13-/11--11-11-11---13-13-13----------|
 |-x--x---x---x---x---x--x--x----x--x--x-----------|
 |-12-11--9-/-11-/9---9--9--9----11-11-11----------|
 |-------------------------------------------------|
 |----------------------------------------------|
 |----------------------------------------------|
 |-14-13--11/-13-/11--11-11-11---9-9-9----------|
 |-x--x---x---x---x---x--x--x----x-x-x----------|Hold
 |-12-11--9-/-11-/9---9--9--9----7-7-7----------|
 |----------------------------------------------|

[End-]  
Made in Lucena Phils.Sacred Heart College

Important: The song above is NOT stored on the Chordie server. The original song is hosted at www.guitartabs.cc. Chordie works as a search engine and provides on-the-fly formatting. Chordie does not index songs against artists'/composers' will. To remove this song please click here.

Text color:
Chord color:
Chord grids: 
Font size:    
Page size: 

G2
Rate #1 of 5 versions

Jango Player

Login - add to songbook

SHARE PAGE  



You need to log in to post comments