Guitar Tabs, Chords and Lyrics
Server problems seems to be fixed. Chordie has been experiencing problems with songs disappearing. These issues now seems to be fixed, but still verifying the fix. If you find anything strange, please email admin@chordie.com.


Holly Wood Died  Yellowcard

Song: Holly Wood Died
Band: Yellowcard
Album: Lights And Sounds
GTR1:
Drop D
Verse 1: all x 2 (. means palm-muted)
 
 e|----------------------------------------------------------------|
 B|----------------------------------------------------------------|
 G|----------------------------------------------------------------|
 D|----------------------------------------------------------------|
 A|----------------------------------------------------------------|
 E|-11-11-11-11-11-11-11-11-11-11-11-2-2-2-2-2-2-2-2-2-2-2-2-2-2-2-|

. . . . . . . . . . . . . . . . . . . . . . . . . .
 
 e|-----------------------------------------------------------------|
 B|-----------------------------------------------------------------|
 G|-----------------------------------------------------------------|
 D|-----------------------------------------------------------------|
 A|-----------------------------------------------------------------|
 E|-4-4-4-4-4-4-4-4-6-6-6-6-6-6-6-6-7-7-7-7-7-7-7-7-7-7-7-7-7-7-7-7-|

. . . . . . . . . . . . . . . . . . . . . . . . . . . . . . . .
Break:
 
 e|-----------------------------------------------------------------|
 B|-----------------------------------------------------------------|
 G|-----------------------------------------------------------------|
 D|-----------------------------------------------------------------|
 A|-----------------------------------------------------------------|
 E|-4-4-4-4-4-4-4-4-6-6-6-6-6-6-6-6-7-7-7-7-7-7-7-7-7-7-7-7-7-7-7-7-|

. . . . . . . . . . . . . . . . . . . . . . . . .
Verse 2: repeat verse 1&break (palm mute also the last part of the break)
Chorus: all x2
 
 e|-------------------------------------------|
 B|-------------------------------------------|
 G|-666666666666666666666---------------------|

D|-666666666666666666666-7777777777777777777-|
A|-444444444444444444444-7777777777777777777-|
 
 E|-----------------------7777777777777777777-|
 e|--------------------------------------------|
 B|--------------------------------------------|
 G|--------------------------------------------|

D|-999999999999999999999-77777777777777777777-|
A|-999999999999999999999-77777777777777777777-|
E|-999999999999999999999-77777777777777777777-|
Verse 3: same as verse 2
Chorus 2: same as previous chorus
Solo:
 
 e|---------------------------------------------|
 B|---------------------------------------------|
 G|-6666666666----------------------------------|
 D|-6666666666-9999999999-7777777777-2----------|
 A|-4444444444-9999999999-7777777777-2-let ring-|
 E|------------9999999999-7777777777-2----------|
 e|-----------------------------------------|
 B|-----------------------------------------|
 G|-6666666666------------------------------|
 D|-6666666666-9999999999-7777777777-10--12-|
 A|-4444444444-9999999999-7777777777-10--12-|
 E|------------9999999999-7777777777-10--12-|

Final Chorus: starts after the gtr2 break
don't play the first C#5 then same as before,repeat till outro
Outro: end on E5(let ring) then play these chords
[E5]  
[B5] [F#5] [E5]  
[B5] [F#5] [A5]  
[B5] [F#5]  
[C#5] [B5] [A5]  
[C#5] [B5] [A5]  
[F#5] [B5] [F#5] [A5]  
B5 F#5 A5 (after this, only violin)
___________________________________________________________________________
GTR2
Standard tuning
Comes in @ verse 2
 
 e|---------------|---------------------------|
 B|---------------|----0----0----0------------|
 G|---------------|----4----4----4--and so on-|
 D|---------------|---------------------------|
 A|-0-0-0-0-0-0-0-|-0-0--0-0--0-0-------------|
 E|---------------|---------------------------|

Chorus 1: same as gtr 1
Verse 3: repeat verse 2
Chorus 2: same as before
SORRY NO SOLO!! could someone tab it pliz?
Break (before final chorus):
 
 e|--------|
 B|--------|

G|-99~-99-|
D|-99~-99-|
A|-77~-77-|
 
 E|--------|

Final Chorus: same as gtr 1
Outro:
 
 e|--------------------------------------------------| repeat & fade out
 B|-9---9---9---9-10-7---7---7---7-9-5---5---5---5-7-|
 G|---9---9---9--------9---9---9-------6---6---6-----|
 D|--------------------------------------------------|
 A|--------------------------------------------------|
 E|--------------------------------------------------|

sorry if there's no solo, i'm working hard on it
hope i can tab it out!
enjoy the rest of this great song

Important: The song above is NOT stored on the Chordie server. The original song is hosted at www.guitartabs.cc. Chordie works as a search engine and provides on-the-fly formatting. Chordie does not index songs against artists'/composers' will. To remove this song please click here.

Text color:
Chord color:
Chord grids: 
Font size:    
Page size: 

A5 B5 C#5 E5 F#5
Rate #1 of 7 versions

Login - add to songbook

SHARE PAGE  




You need to log in to post comments