Guitar Tabs, Chords and Lyrics
Server problems seems to be fixed. Chordie has been experiencing problems with songs disappearing. These issues now seems to be fixed, but still verifying the fix. If you find anything strange, please email admin@chordie.com.


Light Up the Sky  Yellowcard

 
 -------------------------------------------------------------------------------

Light Up The Sky - Yellowcard
 
 -------------------------------------------------------------------------------

tabbed: HurricaneSG
email: efc_leader@hotmail.com
You may listen to the song @ www.myspace.com/yellowcard. Enjoy!
Intro/Verse:
Guitar 1 - find the strumming yourself, it's pretty easy.
Am Dsus G (acoustic chords)
 
 e| |----------------------------------|
 B| |----------------------------------|
 G| |-5-5-5----------------------------|
 D| |-2-0-0----------------------------|
 A| |-0-5-x----------------------------|
 D| |-----5----------------------------|

[Am] [Dsus]  
 
 e| |----------------------------------|
 B| |----------------------------------|
 G| |-5-5------------------------------| (at some parts it's just
 D| |-2-0------------------------------| these chords)
 A| |-0-5------------------------------|
 D| |----------------------------------|

Guitar 2 (w/ wah-wah)
 
 e| |---------------|
 B| |-10--12--13----|
 G| |------------12~| 2x
 D| |---------------| 0.20min
 A| |---------------|
 D| |---------------|
 e| |------------------|
 B| |--10--------------|
 G| |-----9------------| 1x 0.25min
 D| |--------12-10-9---|
 A| |------------------|
 D| |------------------|
 e| |---------------|
 B| |-10--12--13----|
 G| |------------12~| 2x
 D| |---------------|
 A| |---------------|
 D| |---------------|

Chorus:
Guitar 1 (each chord is strummed 8 times)
 
 e| |----------------------------------|
 B| |----------------------------------|
 G| |----------------------------------| 2x 0.35min
 D| |--2--3--5--3----------------------|
 A| |--3--3--5--3----------------------|
 D| |--2--3--5--3----------------------|

Guitar 2
3x 1x
 
 e| |------------------|--10-12-10------------|
 B| |----13-12-13-12---|13--------13-12-------|
 G| |----------------12|---------------12-----| 2x 0.35min
 D| |-10~--------------|----------------------|
 A| |------------------|----------------------|
 D| |------------------|----------------------|

Verse 0.49min
Violin - played during the 2nd verse
 
 e| |----------------------------------|
 B| |----------------------------------|
 G| |--9--9-7-5/7-7-5-4/5/2------------| 2x
 D| |----------------------------------| 0.59min
 A| |----------------------------------|
 D| |----------------------------------|

Chorus 1.22min
Guitar 2
3x 1x
 
 e| |------------------|--10-12-10------------|
 B| |----13-12-13-12---|13--------13-12-------|
 G| |----------------12|---------------12-----| 2x 1.22min
 D| |-10~--------------|----------------------|
 A| |------------------|----------------------|
 D| |------------------|----------------------|
 e| |----------------------------------|
 B| |-13-13--13-13--13-13--13-13-------|
 G| |----------------------------------| 4x 1.37min
 D| |----------------------------------|
 A| |----------------------------------|
 D| |----------------------------------|

Guitar 2: (/w delay)
 
 e| |-10-----------------12----10------|
 B| |-------13-------------------------|
 G| |----------------------------------| 3x 1.49min
 D| |----------------------------------| (only guitar 2 + bass)
 A| |----------------------------------|
 D| |----------------------------------|

Guitar 1
 
 e| |----------------------------------|
 B| |----------------------------------|
 G| |----------------------------------| 2.04min
 D| |--3--2--7--5----------------------| 2x
 A| |--3--2--7--5----------------------|
 D| |--3--2--7--5----------------------|

Guitar 2:
 
 e| |--------------------|--------------|
 B| |------12-13-13-13---|--------------|
 G| |------------------12|-----?--------| 2.04min
 D| |--10~---------------|--------------|
 A| |--------------------|--------------|
 D| |--------------------|--------------|

Guitar 2
 
 e| |----------------------------------|
 B| |----------------------------------|
 G| |--5~------------------------------| 2.18min
 D| |--5~------------------------------|
 A| |--3~------------------------------|
 D| |----------------------------------|

Guitar 1 (picked 8times each)
 
 e| |----------------------------------|
 B| |----------------------------------|
 G| |----------------------------------| 4x 2.18min
 D| |--5--3--2--3----------------------|
 A| |--3--3--3--3----------------------|
 D| |----------------------------------|

p.m . . . .
Chorus 2.45min (guitar 2 of the 2nd chorus)
Outro (same chords as Verse) 3.12min
End on:
Guitar 1:
 
 e| |-------|
 B| |-------|
 G| |-------| 

D| |--5~---|
A| |--5~---|
D| |--5~---|

Important: The song above is NOT stored on the Chordie server. The original song is hosted at www.guitartabs.cc. Chordie works as a search engine and provides on-the-fly formatting. Chordie does not index songs against artists'/composers' will. To remove this song please click here.

Text color:
Chord color:
Chord grids: 
Font size:    
Page size: 

Am Dsus
Rate #3 of 10 versions

Login - add to songbook

SHARE PAGE  



You need to log in to post comments