Guitar Tabs, Chords and Lyrics
Server problems seems to be fixed. Chordie has been experiencing problems with songs disappearing. These issues now seems to be fixed, but still verifying the fix. If you find anything strange, please email admin@chordie.com.


Only One  Yellowcard

"Only One" -- Chords
Yellowcard
Ocean Avenue
[C#5] [A5] [E] [B] [C5]  
 
 e|-----|-----|-----|-----|-----|
 B|--6--|--2--|-----|--4--|--5--|
 G|--6--|--2--|--1--|--4--|--5--|
 D|--6--|--2--|--2--|--4--|--5--|
 A|--4--|--0--|--2--|--2--|--3--|
 E|-----|-----|--0--|-----|-----|

Verse 1 (strum):
[C#]Broken, this fragile thing n[A]ow
[B]and I can't, [C#]I can't pick up the piec[A]es.
[C#]And I've thrown my words all arou[A]nd,
[B]but I can't,[C#] I can't get you a re[A]ason.
Pre-chorus (palm muted, distortion):
I feel so [B]broken up (so broken up),
and [C#]I give up (I give up),
[E]I just wanna tell you so you [B]know..
Chorus (distortion):
Here I [C#]go,
scream my l[A]ungs out and try to get to [E]you,
[B]you are my [C]only one.
[C#]I let go,
there's just [A]no one that gets me like you [E]do
[B]you are my only,
[C]my only one.
After 1st Chorus, the violin plays this little riff
Post-chorus violin riff:
 
 e|--------------------------------------------|
 B|---------14~----12~-------------------------|
 G|-13~------x------x-------13~----------------|
 D|--x------11~-----9~-------x---------11-\-9~-|
 A|-11~---------------------11~---------x---x--|
 E|-------------------------------------9-\-7~-|

Verse 2 (strum):
[C#]Made my mistakes, let you d[A]own
[B]and I can't, [C#]I can't hold on for too l[A]ong.
[C#]Ran my whole life in the grou[A]nd
[B]and I can't, [C#]I can't get up when your g[A]one.
Pre-chorus (palm muted, distortion):
And something's [B]breaking up (breaking up),
I feel like [C#]giving up (like giving up),
[E]I won't walk out until you [B]know..
Chorus (distortion):
Here I [C#]go
scream my [A]lungs out and try to get to [E]you,
[B]you are [C]my only one.
I let [C#]go
there's just [A]no one that gets me like you [E]do
[B]you are my only,
[C]my only one.
Solo:
The Guitar continues playing the Chorus in the background and the violin has this solo.
Solo violin riff:
 
 e|------16~|------19-19-17--------------------16~|-------16-16-------|------|
 B|17-19----|17-17------------17-17--14-17-19-----|-17-17-------19-19~|17-14~|
 G|---------|-------------------------------------|-------------------|------|
 D|---------|-------------------------------------|-------------------|------|
 A|---------|-------------------------------------|-------------------|------|
 E|---------|-------------------------------------|-------------------|------|

Bridge (strum):
Here i [C#]go,
so dis[A]honestly.
Leave a [E]note
[B]for you my [C]only one.
And i [C#]know,
you can see [A]right through me.
So let [E]me go
[B]and you will [C]find someone.
Repeat Chorus a few times
End On C#

Important: The song above is NOT stored on the Chordie server. The original song is hosted at www.guitartabs.cc. Chordie works as a search engine and provides on-the-fly formatting. Chordie does not index songs against artists'/composers' will. To remove this song please click here.

Text color:
Chord color:
Chord grids: 
Font size:    
Page size: 

A A5 B C C# C#5 C5 E
Rate #1 of 18 versions

Jango Player

Login - add to songbook

SHARE PAGE  



You need to log in to post comments