Guitar Tabs, Chords and Lyrics
Major upgrade!! After one year development the new version of Chordie is now online! Please give feedback.


LIFE  YUI

Intro
 
 e|--------------------------------|
 B|--------------------------------|
 G|------6-4~--4-------4----4----4-| 2x
 D|--4/6-----6~--6--2/4--2/4--2/4--|
 A|--------------------------------|
 E|--------------------------------|
 e|--------------------------------|
 B|--------------------------------|
 G|------6-4~--4-------4----4----4-| 2x
 D|--4/6-----6~--6--2/4--2/4--2/4--|
 A|--------------------------------|
 E|--------------------------------|

[C#]Doro darake yo [B]najime nai tokai de[F#]
[F#m]Onaji you ni warae nai
[A#m7]utsumuite aruit[F#]a no
[C#]Isogi ashi de [B]surechigau hito-tach[F#]i
[F#m]?Yume wa kanai mashita [A#m7]ka??
ATASHI mada MOGAit[F#]e iru
[B]Kodomo no goro ni modoru [F#]yori mo
[B]Ima wo umaku ikite mi[A#m7]tai [D#m7]yo
[G#]Kowagari wa [A#]umare tsuk[G]i
[E]Hi no atari basho ni [F#]dete
Ryoute [D#m7]wo hiro[G#m7]gete mita nara
[E]Ano sora [F#]koete yukeru ka [G#m7]na?
Nante omottanda
[E]Tobitatsu tame no tsu[F#]basa
[D#m7]Sore wa mada [G#m7]mie nai
KANTAN [E]ni ika [F#]nai kara ikite yu[G#m7]keru
[G#m7] [F#]  
 
 e|--------------------------------|
 B|--------------------------------|
 G|------6-4~--4-------4----4----4-| 2x
 D|--4/6-----6~--6--2/4--2/4--2/4--|
 A|--------------------------------|
 E|--------------------------------|

[C#]Nureta koinu [B]hiroi ageta daked[F#]e
[F#m]Chotto warae [A#m7]chau hodo
Namida ga kobore[F#]te kita
[C#]Aisaretai [B]aisaretai [F#]bakari
[F#m]ATASHI [A#m7]itte ita yo ne
[F#]Motomeru dake ja dame ne
[B]Kodomo no goro wa MAMA no [F#]koto
[B]Hidoku kizutsuketa Hi mo at[A#m7]ta yo [D#m7]ne
[G#]kawari tai [A#]Ima zen[G]bu
[E]Hi no ataru basho ni [F#]dete
Kono te [D#m7]wo tsuyoku [G#m7]nigitte mitai
[E]Ano basho [F#]ano toki wo kowashi[G#m7]te
I can change my life
[E]Demo kokoro no naka su[F#]bete wo
[D#m7]Totemo tsutae [G#m7]kire nai
KANTAN [E]ni ika [F#]nai kara ikite yu[G#m7]keru
[E]Hi no ataru basho ni [F#]dete
Chizu [D#m7]wo hiro[G#m7]gete miru kedo
[E]I know... You know...
[F#]Mayoi michi mo shikata [G#m7]nai
I can change my life
[E]Sugite kita hibi zenbu [F#]de
Ima [D#m7]no atashi [G#m7]nanda yo
KANTAN [E]ni ika [F#]nai kara ikite yu[G#m7]keru
[G#m7] [F#]  
 
 e|--------------------------------|
 B|--------------------------------|
 G|------6-4~--4-------4----4----4-| 2x
 D|--4/6-----6~--6--2/4--2/4--2/4--|
 A|--------------------------------|
 E|--------------------------------|
 e|--------------------------------|
 B|--------------------------------|
 G|------6-4~--4-------4----4----4-| 2x
 D|--4/6-----6~--6--2/4--2/4--2/4--|
 A|--------------------------------|
 E|--------------------------------|


Important: The song above is NOT stored on the Chordie server. The original song is hosted at www.guitartabs.cc. Chordie works as a search engine and provides on-the-fly formatting. Chordie does not index songs against artists'/composers' will. To remove this song please click here.

Text color:
Chord color:
Chord grids: 
Font size:    
Page size: 

A# A#m7 B C# D#m7 E F# F#m G G# G#m7
Rate #1 of 9 versions

Jango Player

Login - add to songbook

SHARE PAGE  



You need to log in to post comments