Guitar Tabs, Chords and Lyrics
Login is temporarily disabled for some users. Do not panic. Will be back in an hour or two. DO NOT REREGISTER!!


My Generation  YUI

 
 -------------------------------------------------------------------------------

My Generation - YUI
 
 -------------------------------------------------------------------------------

Tabbed by: xXBlackCat
Email: KNekoS@aol.com
Tuning: Standard.
this song was probably meant for electric guitar, so yeah if you have one, i'd suggest
plug it in the amp and play it :)
It's pretty basic and yeah :D
Intro Solo:
 
 -12---------11---------12------11-----12---------11---------12------11---|
 -----12-12-----12-12------12-------------12-12-----12-12------12---------|
 -------------------------------------------------------------------------|
 -------------------------------------------------------------------------|
 -------------------------------------------------------------------------|
 -------------------------------------------------------------------------|
 -12---------11---------12--------14---------12---------11----------------|
 -----12-12-----12-12------12-------12-12------12-12------12--------------|
 -------------------------------------------------------------------------|
 -------------------------------------------------------------------------|
 -------------------------------------------------------------------------|
 -------------------------------------------------------------------------|
 -12---------11---------12------11---------|
 -----12-12-----12-12------12--------------|
 ------------------------------------------|
 ------------------------------------------|
 ------------------------------------------|
 ------------------------------------------|

Verse:
[A]GURANDO ni fuita kaze wo
[E]chiisana mado kara [Badd9]suikon[G#]de tame[C#m]iki[Badd9]
[A]kitaisuru koto no iya ni natte
[E]kodoku ni natta keredo
demo [Badd9]akirame[G#]ta tsumori ja na ka[C#m]tta[Badd9]
[C#m]CHAIMU ga nari owa[A]reba
genjitsu wa m[E]otto hayaku su[Badd9]sunde yu[G#]kudesho
[C#m]mado GARASU wo waruy[A]ou na kimochi towa
[F#m]chotto chi[G#m]gattetanda
h[A]ajime kara jiy[Badd9] yo
Chorus:
My dream [A]kotoba ni dekinai dake nano [E]ni
dare de[F#m]mo ii kara [G#m]to kizutsuke[A]te naita yo[Badd9]ru
waka[A]tte hoshii nante omowanai ke[E]do
[F#m] [G#m] [A] [Badd9] 
egaita y[A]ume wo shinjikirenai yowasa ni tada shihaisareteta
Sixteen My [E]dream
Repeat Verse & Chorus.
The bridge goes:
[F#m] [G#m] [A] [C#m]  
[F#m] [G#m] [A] [Badd9]  
| / slide up
| \ slide down
| h hammer-on
| p pull-off
| ~ vibrato
| + harmonic
| x Mute note
===============================================================================

Important: The song above is NOT stored on the Chordie server. The original song is hosted at www.guitartabs.cc. Chordie works as a search engine and provides on-the-fly formatting. Chordie does not index songs against artists'/composers' will. To remove this song please click here.

Text color:
Chord color:
Chord grids: 
Font size:    
Page size: 

A Badd9 C#m E F#m G# G#m
Rate #1 of 5 versions

Jango Player

Login - add to songbook

SHARE PAGE  



You need to log in to post comments