Guitar Tabs, Chords and Lyrics
Server problems seems to be fixed. Chordie has been experiencing problems with songs disappearing. These issues now seems to be fixed, but still verifying the fix. If you find anything strange, please email admin@chordie.com.


Chicken Fried  Zac Brown Band

Intro (finger picking)
 
 e---------------------------------------------------------------|
 b---1-1\3-----3-----3-----3--------1p0----1-0---1------1--3--1--|
 G---2-2\4-------4---2---2----0-----0------0-0---0-0-------------|
 D-0---------0------------------2--------------------2-----------|
 A--------------------------------3-----3------3----------3--3---|
 E---------3-------3---2-----------------------------------------|
 ---------------------------|
 ---------------------------|
 -0-----0--0--0--0--0-------|
 ---0h2----------------0----|
 ------------0--2--3--------|
 ---------3-----------------|
 ---------------------------------------------------------------

(Verse 1)
You know I like my chicken fried....
|
 
 e-----------3--------------------------2--------|
 b---3-----3------3------------3------3-----3----|
 G---0---0---------0---0---0---2----2---------2--|
 D---------------------------0------------0------|
 A-------------------2---3-------0---------------|
 E-3---3--------3--------------------------------|
 -----------------0------------------------2-----||
 ---3-----1-----1------1-------------------3-----||
 ---0-----0---0----------0-----0---0-0-0-0-2-----||
 --------------------------0h2-------------0-----||
 -0---2-3-----------3---------------0-2-3--------||
 -----------3--------------------3---------------||

[G]Well I was raised up beneath the s[D]hade of a georgia p[C]ine and that's [D]home you know
[G]Sweet tea, pecan p[D]ie and home made w[C]ine where the p[D]eaches grow
[G]And my house it's not m[D]uch to talk a[C]bout[D]
But it's [G]filled with love that's gr[D]own in southern g[C]round[D]
And a little bit of chicken [G]fried, cold beer on a [D]friday night
A pair of jeans that f[C]it just right and the radio [G]up[D]
I like to seen the su[G]n rise, see the love in my w[D]oman's eyes
Feel the touch of a pre[C]cious child, and know a mother's [G]love[D]
Well its [G]funny how it`s the l[D]ittle things in li[C]fe that me[D]an the most
Not [G]where you live or [D]what you drive or the [C]price tag on your cloth[D]es
There`s no d[G]ollar sign on a p[D]iece of mind th[C]is I`ve come to kn[D]ow
So if y[G]ou agree have a d[D]rink with me, raise you g[C]lasses for a t[D]oast
To a little bit of chicken f[G]ried , cold beer on a [D]friday night
A pair of jeans that f[C]it just right and the radio [G]up[D]
I like to seen the su[G]n rise, see the love in my w[D]oman's eyes
Feel the touch of a pre[C]cious child, and know a mother's [G]love[D]
(Instrmental break)
G, D, C, G, D
I thank god [G]for my life
And for the s[D]tars and stripes
May freedom for[C]ever fly, let it [G]ring.
Salute the [G]ones who died
The ones that g[D]ive their lives so we don`t have to [C]sacrifice
All the things we l[G]ove[D]
Like our chicken [G]fried, cold beer on a f[D]riday night
A pair of jeans that f[C]it just right and the radio [G]up[D]
I like to seen the su[G]n rise, see the love in my w[D]oman's eyes
Feel the touch of a pre[C]cious child, and know a mother's [G]love[D]
Getcha a little c[G]hicken fried, cold beer[D] on a friday night
A pair of jeans that f[C]it just right and the radio [G]up[D]
I like to seen the su[G]n rise, see the love in my w[D]oman's eyes
Feel the touch of a pre[C]cious child, and know a mother's [G]love[D]

Important: The song above is NOT stored on the Chordie server. The original song is hosted at www.guitartabs.cc. Chordie works as a search engine and provides on-the-fly formatting. Chordie does not index songs against artists'/composers' will. To remove this song please click here.

Text color:
Chord color:
Chord grids: 
Font size:    
Page size: 

C D G
Rate #1 of 15 versions

Jango Player

Login - add to songbook

SHARE PAGE  




You need to log in to post comments