Guitar Tabs, Chords and Lyrics
Major upgrade!! After one year development the new version of Chordie is now online! Please give feedback.


Beechwood Park  The Zombies

Date: Sat, 13 Dec 1997 12:19:28 -0500
From: Dann Butterfield
Subject: TAB:'Beechwood Park' by The Zombies
Beechwood Park
(Chris White)
THE ZOMBIES
From Odessey And Oracle, 1967
Intro:
 
 ---------------------------------------|
 ---------------------------------------|
 -----0-------3-2-0---------------------|
 -2-2---2-0---------4-2-4---------------|
 -----------4---------------------------|
 ---------------------------------------|

Verse 1:
 
 ----------------------------------------------------------|
 ----------------------------------------------------------|
 ---------0---------3---2----0-------------------------0-2-|
 ---2---2----2-0------------------4-2-4----------2-1-4-----|
 ----------------4-----------------------------------------|
 ----------------------------------------------------------|

Do you remember summer days just after summer rain?
[Bsus4] [B]  
 
 -------------------------------------------------------------------|
 -----------------------------------------------------------5-----4-|
 -------------0------------3---2----0-----------------------4-----4-|
 -----2---2-------2-0----------------------4-2-4------------4-----4-|
 ---------------------4-------------------------------------2-----2-|
 -------------------------------------------------------------------|

When all the air was damp and warm in the green of country lanes?
( Tab from: http://www.guitartabs.cc/tabs/z/zombies/beechwood_park_tab.html )
Chorus:
Em D Cmaj7 G Em: x79987
And the breeze would touch your hair D: x57775
Em D Cmaj7 A Cmaj7: xx10987
Kiss your face and make you care G: 355433
(Bb) (Ab) A: 577655
 
 ----------------------------------------- Bb: 688766-|
 -------------8-6-----------------8-6----- Ab: 466544-|
 -7---------8-----8-7----7------8-----8-7- Gm: 355333-|
 ----------------------------------------- F: 133211-|
 ----------------------------------------- Eb7: 668686-|
 ----------------------------------------- D7+9: x545---|6x

About your world Your summer world
And [Gm]we would count the [F]evening stars
[Eb7]As the day grew [D7+9]dark
In Beechwood [Gm]Par[/]k[F] [/] [Eb7] [/] [D7+9] [/]
Verse 2:
Do you remember golden days and golden summer sun?
The sound of laughter in our ears and the breeze as we would run?
(chorus)
Bridge:
All [Bb]roads in my mind take me [Ab]back in mind
And I [Gm]can't forget you, [F]won't forget you [Eb7]won't forget those [D7+9]days
(N.C.)
And Beechwood Park
(verse chords, no vocal)
(chorus)
(repeat bridge:)
All roads in my mind take me back in mind
And I can't forget you, won't forget you won't forget those days
C B A (bass notes, no guitar in this part)
And Beechwood Park
***********************************
**submitted by Hirsch Freeman******
**transcribed by Shawn Trotter*****
**comments and corrections*********
**welcome at drumbo@geocities.com**
***********************************

Important: The song above is NOT stored on the Chordie server. The original song is hosted at www.guitartabs.cc. Chordie works as a search engine and provides on-the-fly formatting. Chordie does not index songs against artists'/composers' will. To remove this song please click here.

Text color:
Chord color:
Chord grids: 
Font size:    
Page size: 

Ab B Bb Bsus4 Eb7 F Gm
Rate #1 of 8 versions

Jango Player

Login - add to songbook

SHARE PAGE  



You need to log in to post comments