Guitar Tabs, Chords and Lyrics
Server problems seems to be fixed. Chordie has been experiencing problems with songs disappearing. These issues now seems to be fixed, but still verifying the fix. If you find anything strange, please email admin@chordie.com.


Valerie  The Zutons

The guitars are tuned down to Eb for this.
Intro:
Gtr I
 
 |-------0-------0-------0-------0-------0----|
 |-12------12------12------12------12------12-|
 |----13------13------13------13------13------|
 |--------------------------------------------|
 |--------------------------------------------|
 |--------------------------------------------|
 |----0-------0-------0-------0-------0----------|
 |------12------12------12------12------12-------|
 |-13------13------13------13------13------13----|
 |-----------------------------------------------|
 |-----------------------------------------------|
 |-----------------------------------------------|
 |----12-12-12-12-12-12-----------------|
 |----12-12-12-12-12-12-----------------|
 |----13-13-13-13-13-13-----------------|
 |----14-14-14-14-14-14-----------------|
 |--------------------------------------|
 |--------------------------------------|

Verse 1:
[E]Well sometimes I go out by myself
And I look across the wat[F#m]er
And I t[E]hink of all the things, what you're doing
And in my head I make a pict[F#m]ure
Chorus:
[A]'Cause since I've come on home,
Well my b[G#m]ody's been a mess
And I m[A]iss your ginger hair
And the w[G#m]ay you like to dress
[A]Won't you come on over[G#m]
Stop making a fool out of[B] me! Why won't you come on over...
[(E]Valerie?[F#m)]
Riff
[(E)]  
 
 |---------------------------------|---------------------------------|
 |---------------------------------|---------------------------------|
 |---------------------------------|---------------------------------|
 |---------------------------------|---------------------------------|
 |-----------------------2-4-2--4--|-----------------------2-4-2--4--|
 |----0-0--0-0--0--0---4-----------|----0-0--0-0--0--0---4-----------|

( Tab from: http://www.guitartabs.cc/tabs/z/zutons/valerie_crd_ver_6.html )
[(F#m)]  
 
 |---------------------------------|---------------------------------|
 |---------------------------------|---------------------------------|
 |---------------------------------|---------------------------------|
 |---------------------------------|---------------------------------|
 |-----------------------2-4-2--4--|-----------------------2-4-2--4--|
 |----2-2--2-2--2--2---4-----------|----2-2--2-2--2--2---4-----------|

Long Verse:
[E]Did you have to go to jail?
Put your house up on for sale, did you get a good la[F#m]wyer?
I hope y[E]ou didn't catch a tan,
I hope you'll find the right man who'll fix it fo[F#m]r you
[E]Are you shoppin' anywhere,
Changed the colour of you hair, are yo[F#m]u busy?
[E]And did you have to pay the fine?
You were dodging all the time, are you still d[F#m]izzy?
Chorus:
[A]'Cause since I've come on home,
Well my b[G#m]ody's been a mess
And I m[A]iss your ginger hair
And the w[G#m]ay you like to dress
[A]Won't you come on over[G#m]
Stop making a fool out of[B] me! Why won't you come on over...
[(E]Val[F#m)]erie? (w/ Riff x 2)
Verse
N/C
Well sometimes I go out by myself
And I look across the water
And I think of all the things, what you're doing
And in my head I make a picture
Chorus:
[A]'Cause since I've come on home,
Well my b[G#m]ody's been a mess
And I m[A]iss your ginger hair
And the w[G#m]ay you like to dress
[A]Won't you come on over[G#m]
Stop making a fool out of[B] me! Why won't you come on over...
[(E]Valerie? [F#m)](w/riff x 2)
Yeah Valer[E]ie

Important: The song above is NOT stored on the Chordie server. The original song is hosted at www.guitartabs.cc. Chordie works as a search engine and provides on-the-fly formatting. Chordie does not index songs against artists'/composers' will. To remove this song please click here.

Text color:
Chord color:
Chord grids: 
Font size:    
Page size: 

A B E F#m G#m
Rate #2 of 9 versions

Jango Player

Login - add to songbook

SHARE PAGE  



You need to log in to post comments