Guitar Tabs, Chords and Lyrics
Major upgrade!! After one year development the new version of Chordie is now online! Please give feedback.


Ragged Wood  Fleet Foxes

Album: Fleet Foxes
Song: Ragged Wood
Tabbed by: justin@indieguitartabs.com
E chord progression is:
 
 e|-0-0-0-0---| |---------------------------------|
 B|-0-2-4-2---| |-0-------2-------4-------2-------|
 G|-1-1-1-1---| |----1-------1-------1-------1----|
 D|-2-2-2-2---|or |------2-------2-------2-------2--|
 A|-2-2-2-2---| |---------------------------------|
 E|-0-0-0-0---| |-0-0-0-0-0-0-0-0-0-0-0-0-0-0-0-0-|

[E]Come down from the mountain, you have been gone too long
The spring is upon us, follow my only [D]song
[A]Settle down with me by the fire of my [E]young love
You should [B]come back home, [A]back on your own now[E]
[E]The world is alive now, in and outside I know
You run through the forest, settle before the [D]sun
[A]Darling, I can barely remember you be[E]side me
You should [B]come back home, [A]back on your own [E]now
You should [B]come back home, [A]back on your own [E]now
And [B]even in the light, when the woman of the [E]woods came by
To [A]give to you the word of the old man[E]
[B]In the morning tide when the sparrow and the [E]seagull fly
And [A]Jonathan and Evelyn get t[E]ired
 
 e|-------10---7---------7-10-7-------------------------------------|
 B|--9-10-----------10----------10-9----10-9-7----------------------|
 G|---------------------------------------------9-7---------7--9-9--|
 D|----------------------------------------------------9------------| x2
 A|-----------------------------------------------------------------|
 E|-----------------------------------------------------------------|

"whoa oh oh..."
 
 e|-------|---------------------|
 B|-------|---------------------|
 G|-------|-13--9-11------9-11-:|
 D|--9-11-|----------9h11------:| x8
 A|-------|---------------------|
 E|-------|---------------------|

[--]  
 
 e|--------------------| |------------------|
 B|--------------------| |------------------|
 G|-13--9-11------9-11-| |-8--4-6------4-6-:|
 D|----------9h11------| |--------4h6------:| x4
 A|--------------------| |------------------|
 E|--------------------| |------------------|

"Lie to me if you will..."
[E]Lie to me [F#m]if you [G#m]will
[E]at the top of [A]Beringer [C#m]Hill
[B]Tell me any[A]thing you [E]want,
[B]any old [A]lie will [C#m]do
[D]Call [C#m]me back [B]to you
Back to you*[E]

Important: The song above is NOT stored on the Chordie server. The original song is hosted at www.indieguitartabs.com. Chordie works as a search engine and provides on-the-fly formatting. Chordie does not index songs against artists'/composers' will. To remove this song please click here.

Text color:
Chord color:
Chord grids: 
Font size:    
Page size: 

A B C#m D E F#m G#m
Rate #1 of 8 versions

Jango Player

Login - add to songbook

SHARE PAGE  




You need to log in to post comments