Guitar Tabs, Chords and Lyrics
Major upgrade!! After one year development the new version of Chordie is now online! Please give feedback.


Fine Young Cannibals  Wolf Parade

Album: At Mount Zoomer
Song: Fine Young Cannibals
Tabbed by: Brian Wikoff
Words and Music by Wolf Parade
Gtr I (E A D G B E) - 'Dan git-fiddle'
Gtr II (E A D G B E) - 'Hadji flimflam and snake-oil computer sorcery'
Gtr III (E A D G B E) - 'Spencer electro-ivories'
Gtr IV (E A D G B E) - 'dante git-fiddle'
[4] G[4]tr I
E Q E Q Q E Q E Q Q E Q E Q Q E Q E Q Q
 
 |--------------|--------------|-----------------|------------------|
 |--------------|--------------|-----------------|------------------|
 |--------------|--------------|-----------------|------------------|
 |--------------|--------------|-----------------|------------------|
 |-7----7-7--5--|-7----7-7--5--|-10----10-10--5--|-10----10-10--5---|
 |-5----5-5--3--|-5----5-5--3--|--8-----8--8--3--|--8-----8--8--3---|

E Q E Q Q E Q E Q Q E Q E Q Q E Q E Q Q
 
 |---------------|-----------------|-----------------|-----------------|
 |---------------|-----------------|-----------------|-----------------|
 |---------------|-----------------|-----------------|-----------------|
 |---------------|-----------------|-----------------|-----------------|
 |-7-----7-7--5--|-7-----7--7---5--|-10----10-10--5--|-10----10-10--5--|
 |-5-----5-5--3--|-5-----5--5---3--|--8-----8--8--3--|--8-----8--8--3--|

|
| Gtr II
| Q Q H E Q. Q E E W W
 
 |-8-------------|-----------------|-----------------|-----------------|
 |---10----------|-8-------10-8----|-----------------|-----------------|
 |---------------|--------------9--|-----------------|-----------------|
 |---------------|-----------------|-----------------|-----------------|
 |---------------|-----------------|-----------------|-----------------|
 |---------------|-----------------|-----------------|-----------------|

E Q E Q Q E Q E Q Q E Q E Q Q E Q E Q Q
 
 |---------------|---------------|-------------------|-----------------|
 |---------------|---------------|-------------------|-----------------|
 |---------------|---------------|-------------------|-----------------|
 |---------------|---------------|-------------------|-----------------|
 |-7-----7-7--5--|-7-----7-7--5--|-10-----10-10--5---|-10----10-10--5--|
 |-5-----5-5--3--|-5-----5-5--3--|--8------8--8--3---|--8-----8--8--3--|

|
| Gtr III
| E E E E Q Q E E E E Q Q E H. E W
 
 |---------------|---------------|-------------------|-----------------|
 |---------------|---------------|-------------------|-----------------|
 |---------------|---------------|--0----------------|-----------------|
 |-------2-2--0--|-------2-2--0--|-------------------|-----------------|
 |-0-3-----------|-0-3-----------|-------------------|-----------------|
 |---------------|---------------|-------------------|-----------------|

E Q E Q Q E Q E Q Q E Q E Q Q E Q E Q Q
 
 |---------------|---------------|-------------------|-----------------|
 |---------------|---------------|-------------------|-----------------|
 |---------------|---------------|-------------------|-----------------|
 |---------------|---------------|-------------------|-----------------|
 |-7-----7-7--5--|-7-----7-7--5--|-10-----10-10--5---|-10----10-10--5--|
 |-5-----5-5--3--|-5-----5-5--3--|--8------8--8--3---|--8-----8--8--3--|

|
| E E E E Q Q E E E E Q Q E H. E W
 
 |---------------|---------------|-------------------|-----------------|
 |---------------|---------------|-------------------|-----------------|
 |---------------|---------------|--0----------------|-----------------|
 |-------2-2--0--|-------2-2--0--|-------------------|-----------------|
 |-0-3-----------|-0-3-----------|-------------------|-----------------|
 |---------------|---------------|-------------------|-----------------|

E Q E Q Q E Q E Q Q E Q E Q Q E Q E Q Q
 
 |--------------|--------------|-----------------|-----------------|
 |--------------|--------------|-----------------|-----------------|
 |--------------|--------------|-----------------|-----------------|
 |--------------|--------------|-----------------|-----------------|
 |-7----7-7--5--|-7----7-7--5--|-10----10-10--5--|-10----10-10--5--|
 |-5----5-5--3--|-5----5-5--3--|--8-----8--8--3--|--8-----8--8--3--|

E Q E Q Q E Q E Q Q E Q E Q Q E Q E Q Q
 
 |--------------|--------------|-----------------|-----------------|
 |--------------|--------------|-----------------|-----------------|
 |--------------|--------------|-----------------|-----------------|
 |--------------|--------------|-----------------|-----------------|
 |-7----7-7--5--|-7----7-7--5--|-10----10-10--5--|-10----10-10--5--|
 |-5----5-5--3--|-5----5-5--3--|--8-----8--8--3--|--8-----8--8--3--|

E Q E Q Q E Q E Q Q
 
 |-----------------------|-----------------------|
 |-----------------------|-----------------------|
 |-----------------------|-----------------------|
 |-----------------------|-----------------------|
 |--7--------7--7-----5--|--7--------7--7-----5--|
 |--5--------5--5-----3--|--5--------5--5-----3--|

|
| E E E E Q Q E E E E Q Q
 
 |-----------------------|-----------------------|
 |-----------------------|-----------------------|
 |-----------------------|-----------------------|
 |-----------2--2-----0--|-----------2--2-----0--|
 |--0--3-----------------|--0--3-----------------|
 |-----------------------|-----------------------|

|
| Gtr III
| E E E E E E Q E E E E E E Q
 
 |-12-12-12-12-12-15-15--|-12-12-12-12-12-15-15--|
 |-13-13-13-13-13-13-----|-13-13-13-13-13-13-----|
 |-----------------------|-----------------------|
 |-----------------------|-----------------------|
 |-----------------------|-----------------------|
 |-----------------------|-----------------------|

E Q E Q Q E Q E Q Q
 
 |---------------------|-----------------|
 |---------------------|-----------------|
 |---------------------|-----------------|
 |---------------------|-----------------|
 |-10------10-10--5----|-10----10-10--5--|
 |--8-------8--8--3----|--8-----8--8--3--|

|
| E H. E W
 
 |---------------------|-----------------|
 |---------------------|-----------------|
 |--0------------------|-----------------|
 |---------------------|-----------------|
 |---------------------|-----------------|
 |---------------------|-----------------|

|
| Q Q Q E E W
 
 |-12----8-------------|-----------------|
 |------------10--8-10-|-----------------|
 |---------------------|-----------------|
 |---------------------|-----------------|
 |---------------------|-----------------|
 |---------------------|-----------------|

E Q E Q Q E Q E Q Q
 
 |-----------------------|-----------------------|
 |-----------------------|-----------------------|
 |-----------------------|-----------------------|
 |-----------------------|-----------------------|
 |--7--------7--7-----5--|--7--------7--7-----5--|
 |--5--------5--5-----3--|--5--------5--5-----3--|

|
| E E E E Q Q E E E E Q Q
 
 |-----------------------|-----------------------|
 |-----------------------|-----------------------|
 |-----------------------|-----------------------|
 |-----------2--2-----0--|-----------2--2-----0--|
 |--0--3-----------------|--0--3-----------------|
 |-----------------------|-----------------------|

|
| E E E E E E Q E E E E E E Q
 
 |-12-12-12-12-12-15-15--|-12-12-12-12-12-15-15--|
 |-13-13-13-13-13-13-----|-13-13-13-13-13-13-----|
 |-----------------------|-----------------------|
 |-----------------------|-----------------------|
 |-----------------------|-----------------------|
 |-----------------------|-----------------------|

E Q E Q Q E Q E Q Q
 
 |---------------------|-----------------|
 |---------------------|-----------------|
 |---------------------|-----------------|
 |---------------------|-----------------|
 |-10-----10-10---5----|-10----10-10--5--|
 |--8------8--8---3----|--8-----8--8--3--|

|
| E H. E W
 
 |---------------------|-----------------|
 |---------------------|-----------------|
 |--0------------------|-----------------|
 |---------------------|-----------------|
 |---------------------|-----------------|
 |---------------------|-----------------|

|
| Gtr II
| E Q. Q E E W
 
 |-20--------15--17-12-|-----------------|
 |---------------------|-----------------|
 |---------------------|-----------------|
 |---------------------|-----------------|
 |---------------------|-----------------|
 |---------------------|-----------------|

Q q q Q q q q Q q q q Q h q Q
 
 |----5--8--7--|----5--8--7--|--------------|--------------|
 |----5--5--5--|----5--5--5--|----8--10--8--|--------------|
 |-------------|-------------|----9---9--9--|-------9---9--|
 |-------------|-------------|--------------|------10--10--|
 |-------------|-------------|--------------|--------------|
 |-------------|-------------|--------------|--------------|

Q q q Q q q q Q q q q Q h q Q
 
 |----5--8--7--|----5--8--7--|--------------|--------------|
 |----5--5--5--|----5--5--5--|----8--10--8--|--------------|
 |-------------|-------------|----9---9--9--|-------9---9--|
 |-------------|-------------|--------------|------10--10--|
 |-------------|-------------|--------------|--------------|
 |-------------|-------------|--------------|--------------|

E Q E Q Q E Q E Q Q
 
 |------------------|------------------|
 |------------------|------------------|
 |------------------|------------------|
 |------------------|------------------|
 |-7-------7-7---5--|--7------7-7---5--|
 |-5-------5-5---3--|--5------5-5---3--|

|
| Gtr III
| E S S E Q E Q E E E Q E Q
 
 |------------------|------------------|
 |---5-6-5----------|-----5-5----------|
 |-------------5-7--|-------------5-7--|
 |-------------7-9--|-------------7-9--|
 |------------------|------------------|
 |------------------|------------------|

|
| Gtr II
| W +W
 
 |------------------|------------------|
 |-8----------------|-(8)--------------|
 |------------------|------------------|
 |------------------|------------------|
 |------------------|------------------|
 |------------------|------------------|

E Q E Q Q E Q E Q Q
 
 |------------------------|------------------------|
 |------------------------|------------------------|
 |------------------------|------------------------|
 |------------------------|------------------------|
 |-10----------10-10---5--|--10--------10-10---5---|
 |--8-----------8--8---3--|---8---------8--8---3---|

|
| E S S E Q E Q E S S E Q E Q
 
 |------------------------|------------------------|
 |-----5-6--5--------3----|------5-6-5-------3-----|
 |-------------------4-5--|------------------4-5---|
 |---------------------5--|--------------------5---|
 |------------------------|------------------------|
 |------------------------|------------------------|

|
| +Q H. +W
 
 |------------------------|------------------------|
 |-(8)-----10-------------|-(10)-------------------|
 |------------------------|------------------------|
 |------------------------|------------------------|
 |------------------------|------------------------|
 |------------------------|------------------------|

E Q E Q Q E Q E Q Q
 
 |----------------------|--------------------|
 |----------------------|--------------------|
 |----------------------|--------------------|
 |----------------------|--------------------|
 |---7---------7-7---5--|--7--------7-7---5--|
 |---5---------5-5---3--|--5--------5-5---3--|

|
| E S S E Q E Q E S S E Q E Q
 
 |----------------------|--------------------|
 |------5-6-5-----------|-----5-6-5----------|
 |-----------------5-7--|---------------5-7--|
 |-----------------7-9--|---------------7-9--|
 |----------------------|--------------------|
 |----------------------|--------------------|

|
| +Q H. +W
 
 |----------8-----------|-(8)----------------|
 |-(10)-----------------|--------------------|
 |----------------------|--------------------|
 |----------------------|--------------------|
 |----------------------|--------------------|
 |----------------------|--------------------|

E Q E Q Q E Q E Q Q
 
 |---------------------|---------------------|
 |---------------------|---------------------|
 |---------------------|---------------------|
 |---------------------|---------------------|
 |-10-------10-10---5--|-10-------10-10---5--|
 |--8--------8--8---3--|--8--------8--8---3--|

|
| E S S E Q E Q E S S E Q E Q
 
 |---------------------|---------------------|
 |----5-6-5-------3----|----5-6-5-------3----|
 |----------------4-5--|----------------4-5--|
 |------------------5--|------------------5--|
 |---------------------|---------------------|
 |---------------------|---------------------|

|
| W W
 
 |---------------------|---------------------|
 |---------------------|---------------------|
 |---------------------|---------------------|
 |---------------------|---------------------|
 |---------------------|---------------------|
 |---------------------|---------------------|

E Q E Q Q E Q E Q Q
 
 |------------------|--------------------|
 |------------------|--------------------|
 |------------------|--------------------|
 |------------------|--------------------|
 |-7-------7-7---5--|--7--------7-7---5--|
 |-5-------5-5---3--|--5--------5-5---3--|

|
| E S S E Q E Q E S S E Q E Q
 
 |------------------|--------------------|
 |---5-6-5----------|-----5-6-5----------|
 |-------------5-7--|---------------5-7--|
 |-------------7-9--|---------------7-9--|
 |------------------|--------------------|
 |------------------|--------------------|

|
| W +W
 
 |------------------|--------------------|
 |-8----------------|-(8)----------------|
 |------------------|--------------------|
 |------------------|--------------------|
 |------------------|--------------------|
 |------------------|--------------------|

E Q E Q Q E Q E Q Q
 
 |---------------------|-----------------------|
 |---------------------|-----------------------|
 |---------------------|-----------------------|
 |---------------------|-----------------------|
 |-10-------10-10---5--|--10--------10-10---5--|
 |--8--------8--8---3--|---8---------8--8---3--|

|
| E S S E Q E Q E S S E Q E Q
 
 |---------------------|-----------------------|
 |----5-6-5-------3----|------5-6-5-------3----|
 |----------------4-5--|------------------4-5--|
 |------------------5--|--------------------5--|
 |---------------------|-----------------------|
 |---------------------|-----------------------|

|
| W +W
 
 |---------------------|-----------------------|
 |-10------------------|-(10)------------------|
 |---------------------|-----------------------|
 |---------------------|-----------------------|
 |---------------------|-----------------------|
 |---------------------|-----------------------|

E Q E Q Q E Q E Q Q
 
 |------------------|--------------------|
 |------------------|--------------------|
 |------------------|--------------------|
 |------------------|--------------------|
 |-7-------7-7---5--|--7--------7-7---5--|
 |-5-------5-5---3--|--5--------5-5---3--|

|
| E S S E Q E Q E S S E Q E Q
 
 |------------------|--------------------|
 |---5-6-5----------|-----5-6-5----------|
 |-------------5-7--|---------------5-7--|
 |-------------7-9--|---------------7-9--|
 |------------------|--------------------|
 |------------------|--------------------|

|
| W +W
 
 |-8----------------|-(8)----------------|
 |------------------|--------------------|
 |------------------|--------------------|
 |------------------|--------------------|
 |------------------|--------------------|
 |------------------|--------------------|

E Q E Q Q E Q E Q Q
 
 |------------------------|--------------------|
 |------------------------|--------------------|
 |------------------------|--------------------|
 |------------------------|--------------------|
 |-10----------10-10---5--|--10-----10-10--5---|
 |--8-----------8--8---3--|---8------8--8--3---|

|
| E S S E Q E Q W
 
 |------------------------|--------------------|
 |-----5-6--5--------3----|--------------------|
 |-------------------4-5--|--------------------|
 |---------------------5--|--------------------|
 |------------------------|--------------------|
 |------------------------|--------------------|

|
| +Q H. +W
 
 |-(8)-----12-------------|-(12)---------------|
 |------------------------|--------------------|
 |------------------------|--------------------|
 |------------------------|--------------------|
 |------------------------|--------------------|
 |------------------------|--------------------|

Q q q Q q q q Q q q q Q h q Q
 
 |----5--8--7--|----5--8--7--|--------------|--------------|
 |----5--5--5--|----5--5--5--|----8--10--8--|--------------|
 |-------------|-------------|----9---9--9--|-------9---9--|
 |-------------|-------------|--------------|------10--10--|
 |-------------|-------------|--------------|--------------|
 |-------------|-------------|--------------|--------------|

Q q q Q q q q Q q q q Q h q Q
 
 |----5--8--7--|----5--8--7--|--------------|--------------|
 |----5--5--5--|----5--5--5--|----8--10--8--|--------------|
 |-------------|-------------|----9---9--9--|-------9---9--|
 |-------------|-------------|--------------|------10--10--|
 |-------------|-------------|--------------|--------------|
 |-------------|-------------|--------------|--------------|

W W Q Q Q Q Q Q Q Q
 
 |-------------------------|-----------------|----5-----5--|----5-----5--|
 |--1----------------------|-3---------------|----5-----5--|----5-----5--|
 |--2----------------------|-4---------------|----5-----5--|----5-----5--|
 |--3----------------------|-5---------------|-------------|-------------|
 |--3----------------------|-5---------------|-------------|-------------|
 |--1----------------------|-3---------------|-------------|-------------|

|
| e e e e e e e e e e e e e e e e Q Q Q Q Q Q Q Q
 
 |--8--8--8--8--8--8--8--8-|-7-7-7-7-7-7-7-7-|-------------|-------------|
 |-10-10-10-10-10-10-10-10-|-8-8-8-8-8-8-8-8-|----5-----5--|----5-----5--|
 |-------------------------|-----------------|----5-----5--|----5-----5--|
 |-------------------------|-----------------|-------------|-------------|
 |-------------------------|-----------------|-------------|-------------|
 |-------------------------|-----------------|-------------|-------------|

W W Q Q Q Q Q Q Q Q
 
 |-------------------------|-----------------|-----5------5--|-----5------5--|
 |--1----------------------|-3---------------|-----5------5--|-----5------5--|
 |--2----------------------|-4---------------|-----5------5--|-----5------5--|
 |--3----------------------|-5---------------|---------------|---------------|
 |--3----------------------|-5---------------|---------------|---------------|
 |--1----------------------|-3---------------|---------------|---------------|

|
| e e e e e e e e e e e e e e e e Q Q Q Q Q Q Q Q
 
 |--8--8--8--8--8--8--8--8-|-7-7-7-7-7-7-7-7-|---------------|---------------|
 |-10-10-10-10-10-10-10-10-|-8-8-8-8-8-8-8-8-|-----5------5--|-----5------5--|
 |-------------------------|-----------------|-----5------5--|-----5------5--|
 |-------------------------|-----------------|---------------|---------------|
 |-------------------------|-----------------|---------------|---------------|
 |-------------------------|-----------------|---------------|---------------|

|
| W W H H Q H.
 
 |-------------------------|-----------------|-20-----17-----|-15------------|
 |-------------------------|-----------------|---------------|---------------|
 |-------------------------|-----------------|---------------|---------------|
 |-------------------------|-----------------|---------------|---------------|
 |-------------------------|-----------------|---------------|---------------|
 |-------------------------|-----------------|---------------|---------------|

W W
 
 |----------|------|
 |-1--------|-3----|
 |-2--------|-4----|
 |-3--------|-5----|
 |-3--------|-5----|
 |-1--------|-3----|

|
| W W
 
 |-5--------|-7----|
 |-6--------|-8----|
 |-5--------|-7----|
 |----------|------|
 |----------|------|
 |----------|------|

E Q E Q Q E Q E Q Q
 
 |-------------------------|-------------------------|
 |-------------------------|-------------------------|
 |-------------------------|-------------------------|
 |-------------------------|-------------------------|
 |--7----------7--7-----5--|--7----------7--7-----5--|
 |--5----------5--5-----3--|--5----------5--5-----3--|

|
| E S S E Q E Q E S S E Q E Q
 
 |-------------------------|-------------------------|
 |-----5-6--5--------------|-----5-6--5--------------|
 |-------------------5--7--|-------------------5--7--|
 |-------------------7--9--|-------------------7--9--|
 |-------------------------|-------------------------|
 |-------------------------|-------------------------|

|
| E E E E E E Q E E E E E E Q
 
 |-12-12---12-12-12-15-15--|-12-12---12-12-12-15-15--|
 |-13-13---13-13-13-13-----|-13-13---13-13-13-13-----|
 |-------------------------|-------------------------|
 |-------------------------|-------------------------|
 |-------------------------|-------------------------|
 |-------------------------|-------------------------|

E Q E Q Q E Q E Q Q
 
 |---------------------|---------------------|
 |---------------------|---------------------|
 |---------------------|---------------------|
 |---------------------|---------------------|
 |-10-------10-10---5--|-10-------10-10---5--|
 |--8--------8--8---3--|--8--------8--8---3--|

|
| E S S E Q E Q E S S E Q E Q
 
 |---------------------|---------------------|
 |----5-6-5-------3----|----5-6-5-------3----|
 |----------------4-5--|----------------4-5--|
 |------------------5--|------------------5--|
 |---------------------|---------------------|
 |---------------------|---------------------|

|
| W W
 
 |---------------------|---------------------|
 |---------------------|---------------------|
 |---------------------|---------------------|
 |---------------------|---------------------|
 |---------------------|---------------------|
 |---------------------|---------------------|

E Q E Q Q E Q E Q Q
 
 |-------------------------|-------------------------|
 |-------------------------|-------------------------|
 |-------------------------|-------------------------|
 |-------------------------|-------------------------|
 |--7----------7--7-----5--|--7----------7--7-----5--|
 |--5----------5--5-----3--|--5----------5--5-----3--|

|
| E S S E Q E Q E S S E Q E Q
 
 |-------------------------|-------------------------|
 |-----5-6--5--------------|-----5-6--5--------------|
 |-------------------5--7--|-------------------5--7--|
 |-------------------7--9--|-------------------7--9--|
 |-------------------------|-------------------------|
 |-------------------------|-------------------------|

|
| e e e e e e q e e e e e e Q
 
 |-12-12---12-12-12-15-15--|-12-12---12-12-12-12-12--|
 |-13-13---13-13-13-13-----|-13-13---13-13-13-13-13--|
 |-------------------------|-------------------------|
 |-------------------------|-------------------------|
 |-------------------------|-------------------------|
 |-------------------------|-------------------------|

E Q E Q Q E Q E Q Q
 
 |-------------------------|------------------|
 |-------------------------|------------------|
 |-------------------------|------------------|
 |-------------------------|------------------|
 |-10--------10-10----5----|-10----10-10--5---|
 |--8---------8--8----3----|--8-----8--8--3---|

|
| E S S E Q E Q W
 
 |-------------------------|------------------|
 |----5-6--5-------3-------|------------------|
 |-----------------4--5----|------------------|
 |--------------------5----|------------------|
 |-------------------------|------------------|
 |-------------------------|------------------|

|
| Q Q Q E E W
 
 |-20-----17----15---17-12-|------------------|
 |-------------------------|------------------|
 |-------------------------|------------------|
 |-------------------------|------------------|
 |-------------------------|------------------|
 |-------------------------|------------------|

[E] [E] [E] [E] [E] [E] [E] [E] [E] [E] [E] [E] [E] [E] [E] [E]  
 
 |-----------------|-----------------|
 |-----------------|-----------------|
 |-----------------|-----------------|
 |-----------------|-----------------|
 |-7-7-7-7-7-7-7-7-|-7-7-7-7-7-7-7-7-|
 |-5-5-5-5-5-5-5-5-|-5-5-5-5-5-5-5-5-|

|
| E E E E Q Q E E E E Q Q
 
 |-----------------|-----------------|
 |-----------------|-----------------|
 |-----------------|-----------------|
 |-------2-2---0---|-------2-2---0---|
 |-0-3-------------|-0-3-------------|
 |-----------------|-----------------|

[E] [E] [E] [E] [E] [E] [E] [E] [E] [E] [E] [E] [E] [E] [E] [E]  
 
 |--------------------------|-------------------------|
 |--------------------------|-------------------------|
 |--------------------------|-------------------------|
 |--------------------------|-------------------------|
 |-10-10--10-10-10-10-10-10-|-10-10-10-10-10-10-10-10-|
 |--8--8---8--8--8--8--8--8-|--8--8--8--8--8--8--8--8-|

|
| E H. E W
 
 |--------------------------|-------------------------|
 |--------------------------|-------------------------|
 |--0-----------------------|-------------------------|
 |--------------------------|-------------------------|
 |--------------------------|-------------------------|
 |--------------------------|-------------------------|

[E] [E] [E] [E] [E] [E] [E] [E] [E] [E] [E] [E] [E] [E] [E] [E]  
 
 |-----------------|-----------------|
 |-----------------|-----------------|
 |-----------------|-----------------|
 |-----------------|-----------------|
 |-7-7-7-7-7-7-7-7-|-7-7-7-7-7-7-7-7-|
 |-5-5-5-5-5-5-5-5-|-5-5-5-5-5-5-5-5-|

|
| E E E E Q Q E E E E Q Q
 
 |-----------------|-----------------|
 |-----------------|-----------------|
 |-----------------|-----------------|
 |-------2-2---0---|-------2-2---0---|
 |-0-3-------------|-0-3-------------|
 |-----------------|-----------------|

[E] [E] [E] [E] [E] [E] [E] [E] [E] [E] [E] [E] [E] [E] [E] [E]  
 
 |--------------------------|-------------------------|
 |--------------------------|-------------------------|
 |--------------------------|-------------------------|
 |--------------------------|-------------------------|
 |-10-10--10-10-10-10-10-10-|-10-10-10-10-10-10-10-10-|
 |--8--8---8--8--8--8--8--8-|--8--8--8--8--8--8--8--8-|

|
| E H. E W
 
 |--------------------------|-------------------------|
 |--------------------------|-------------------------|
 |--0-----------------------|-------------------------|
 |--------------------------|-------------------------|
 |--------------------------|-------------------------|
 |--------------------------|-------------------------|

[E] [E] [E] [E] [E] [E] [E] [E] [E] [E] [E] [E] [E] [E] [E] [E]  
 
 |------------------|--------------------|
 |------------------|--------------------|
 |------------------|--------------------|
 |------------------|--------------------|
 |--7-7-7-7-7-7-7-7-|---7--7-7-7-7-7-7-7-|
 |--5-5-5-5-5-5-5-5-|---5--5-5-5-5-5-5-5-|

|
| E E E E Q Q E E E E Q Q
 
 |------------------|--------------------|
 |------------------|--------------------|
 |------------------|--------------------|
 |--------2-2---0---|----------2-2---0---|
 |--0-3-------------|---0--3-------------|
 |------------------|--------------------|

|
| W +W
 
 |-15---------------|-(15)---------------|
 |------------------|--------------------|
 |------------------|--------------------|
 |------------------|--------------------|
 |------------------|--------------------|
 |------------------|--------------------|

[E] [E] [E] [E] [E] [E] [E] [E] [E] [E] [E] [E] [E] [E] [E] [E]  
 
 |----------------------------|-------------------------|
 |----------------------------|-------------------------|
 |----------------------------|-------------------------|
 |----------------------------|-------------------------|
 |--10--10--10-10-10-10-10-10-|-10-10-10-10-10-10-10-10-|
 |---8---8---8--8--8--8--8--8-|--8--8--8--8--8--8--8--8-|

|
| E H. E W
 
 |----------------------------|-------------------------|
 |----------------------------|-------------------------|
 |---0------------------------|-------------------------|
 |----------------------------|-------------------------|
 |----------------------------|-------------------------|
 |----------------------------|-------------------------|

|
| +W W
 
 |-(15)-----------------------|-12----------------------|
 |----------------------------|-------------------------|
 |----------------------------|-------------------------|
 |----------------------------|-------------------------|
 |----------------------------|-------------------------|
 |----------------------------|-------------------------|

[E] [E] [E] [E] [E] [E] [E] [E] [E] [E] [E] [E] [E] [E] [E] [E]  
 
 |------------------------|------------------------|
 |------------------------|------------------------|
 |------------------------|------------------------|
 |------------------------|------------------------|
 |--7--7--7--7--7--7--7-7-|--7--7--7--7--7--7--7-7-|
 |--5--5--5--5--5--5--5-5-|--5--5--5--5--5--5--5-5-|

|
| E E E E Q Q E E E E Q Q
 
 |------------------------|------------------------|
 |------------------------|------------------------|
 |------------------------|------------------------|
 |-----------2--2-----0---|-----------2--2-----0---|
 |--0--3------------------|--0--3------------------|
 |------------------------|------------------------|

|
| e e e e e e q e e e e e e Q
 
 |-12-12-12-12-12-15-15---|-12-12-12-12-12-12-12---|
 |-13-13-13-13-13-13------|-13-13-13-13-13-13-13---|
 |------------------------|------------------------|
 |------------------------|------------------------|
 |------------------------|------------------------|
 |------------------------|------------------------|

[E] [E] [E] [E] [E] [E] [E] [E] [E] [E] [E] [E] [E] [E] [E] [E]  
 
 |--------------------------|-------------------------|
 |--------------------------|-------------------------|
 |--------------------------|-------------------------|
 |--------------------------|-------------------------|
 |-10-10--10-10-10-10-10-10-|-10-10-10-10-10-10-10-10-|
 |--8--8---8--8--8--8--8--8-|--8--8--8--8--8--8--8--8-|

|
| E H. E W
 
 |--------------------------|-------------------------|
 |--------------------------|-------------------------|
 |--0-----------------------|-------------------------|
 |--------------------------|-------------------------|
 |--------------------------|-------------------------|
 |--------------------------|-------------------------|

|
| Q Q Q E E W
 
 |-20-----17----15----17-12-|-------------------------|
 |--------------------------|-------------------------|
 |--------------------------|-------------------------|
 |--------------------------|-------------------------|
 |--------------------------|-------------------------|
 |--------------------------|-------------------------|

E Q E Q Q E Q E Q Q
 
 |-------------------------|-------------------------|
 |-------------------------|-------------------------|
 |-------------------------|-------------------------|
 |-------------------------|-------------------------|
 |--7--------7--7-----5----|--7--------7--7-----5----|
 |--5--------5--5-----3----|--5--------5--5-----3----|

|
| e e e e e e e e e e e e e e e e
 
 |-12-12-12-12-12-10-10-10-|-12-12-12-12-12-10-10-10-|
 |-10-10-10-10-10-10-10-10-|-10-10-10-10-10-10-10-10-|
 |-------------------------|-------------------------|
 |-------------------------|-------------------------|
 |-------------------------|-------------------------|
 |-------------------------|-------------------------|

E Q E Q Q E Q E Q Q
 
 |------------------------|------------------------|
 |------------------------|------------------------|
 |------------------------|------------------------|
 |------------------------|------------------------|
 |-10-------10-10-----5---|-10-------10-10-----5---|
 |--8--------8--8-----3---|--8--------8--8-----3---|

|
| e e e e e e e e e e e e e e e e
 
 |-12-12-12-12-12-10-10-8-|-12-12-12-12-12-10-10-8-|
 |-13-13-13-13-13-10-10-8-|-13-13-13-13-13-10-10-8-|
 |------------------------|------------------------|
 |------------------------|------------------------|
 |------------------------|------------------------|
 |------------------------|------------------------|

E Q E Q Q E Q E Q Q
 
 |-------------------------|-------------------------|
 |-------------------------|-------------------------|
 |-------------------------|-------------------------|
 |-------------------------|-------------------------|
 |--7--------7--7-----5----|--7--------7--7-----5----|
 |--5--------5--5-----3----|--5--------5--5-----3----|

|
| e e e e e e e e e e e e e e e e
 
 |-12-12-12-12-12-10-10-10-|-12-12-12-12-12-10-10-10-|
 |-10-10-10-10-10-10-10-10-|-10-10-10-10-10-10-10-10-|
 |-------------------------|-------------------------|
 |-------------------------|-------------------------|
 |-------------------------|-------------------------|
 |-------------------------|-------------------------|

E Q E Q Q E Q E Q Q
 
 |------------------------|--------------------|
 |------------------------|--------------------|
 |------------------------|--------------------|
 |------------------------|--------------------|
 |-10-------10-10-----5---|-10-----10-10---5---|
 |--8--------8--8-----3---|--8------8--8---3---|

|
| e e e e e e e e e e e e e e e e
 
 |-12-12-12-12-12-10-10-8-|--8-8-8--8--8-8-8-8-|
 |-13-13-13-13-13-10-10-8-|--8-8-8--8--8-8-8-8-|
 |------------------------|--------------------|
 |------------------------|--------------------|
 |------------------------|--------------------|
 |------------------------|--------------------|

W W
 
 |-------------------------|-------------------|
 |--1----------------------|--3----------------|
 |--2----------------------|--4----------------|
 |--3----------------------|--5----------------|
 |--3----------------------|--5----------------|
 |--1----------------------|--3----------------|

|
| e e e e e e e e e e e e e e e e
 
 |--8--8--8--8--8--8--8--8-|--7-7-7-7--7-7-7-7-|
 |-10-10-10-10-10-10-10-10-|--8-8-8-8--8-8-8-8-|
 |-------------------------|-------------------|
 |-------------------------|-------------------|
 |-------------------------|-------------------|
 |-------------------------|-------------------|

|
| H H H H
 
 |-------------12----------|----------17-------|
 |-13----------------------|-------------------|
 |-------------------------|-12----------------|
 |-------------------------|-------------------|
 |-------------------------|-------------------|
 |-------------------------|-------------------|

Q Q Q Q Q Q Q Q
 
 |------5-------5----|----5-----5--|
 |------5-------5----|----5-----5--|
 |------5-------5----|----5-----5--|
 |-------------------|-------------|
 |-------------------|-------------|
 |-------------------|-------------|

|
| Q Q Q Q Q Q Q Q
 
 |-------------------|-------------|
 |------5-------5----|----5-----5--|
 |------5-------5----|----5-----5--|
 |-------------------|-------------|
 |-------------------|-------------|
 |-------------------|-------------|

|
| Q Q Q E E W
 
 |-20--17--15--17-12-|-------------|
 |-------------------|-------------|
 |-------------------|-------------|
 |-------------------|-------------|
 |-------------------|-------------|
 |-------------------|-------------|

W W
 
 |-------------------------|-------------------|
 |--1----------------------|--3----------------|
 |--2----------------------|--4----------------|
 |--3----------------------|--5----------------|
 |--3----------------------|--5----------------|
 |--1----------------------|--3----------------|

|
| e e e e e e e e e e e e e e e e
 
 |--8--8--8--8--8--8--8--8-|--7-7-7-7--7-7-7-7-|
 |-10-10-10-10-10-10-10-10-|--8-8-8-8--8-8-8-8-|
 |-------------------------|-------------------|
 |-------------------------|-------------------|
 |-------------------------|-------------------|
 |-------------------------|-------------------|

|
| H H H H
 
 |-------------12----------|----------17-------|
 |-13----------------------|-------------------|
 |-------------------------|-12----------------|
 |-------------------------|-------------------|
 |-------------------------|-------------------|
 |-------------------------|-------------------|

Q Q Q Q Q Q Q Q
 
 |------5-------5----|----5-----5--|
 |------5-------5----|----5-----5--|
 |------5-------5----|----5-----5--|
 |-------------------|-------------|
 |-------------------|-------------|
 |-------------------|-------------|

|
| Q Q Q Q Q Q Q Q
 
 |-------------------|-------------|
 |------5-------5----|----5-----5--|
 |------5-------5----|----5-----5--|
 |-------------------|-------------|
 |-------------------|-------------|
 |-------------------|-------------|

|
| Q Q Q E E W
 
 |-20--17--15--17-12-|-------------|
 |-------------------|-------------|
 |-------------------|-------------|
 |-------------------|-------------|
 |-------------------|-------------|
 |-------------------|-------------|

W W Q Q Q Q [3] Q[4] Q E E
 
 |-------------------------|-----------------|-0---0---0---0---|--------------|
 |--1----------------------|-3---------------|-1---1---0---0---|-1---1---3-1--|
 |--2----------------------|-4---------------|-0---0---0---0---|-2---2---2-2--|
 |--3----------------------|-5---------------|-2---2---2---2---|-3---3---3-3--|
 |--3----------------------|-5---------------|-3---3---2---2---|-3---3--------|
 |--1----------------------|-3---------------|-----------------|--------------|

|
| e e e e e e e e e e e e e e e e e e e e e e e e e e e e e e
 
 |--8--8--8--8--8--8--8--8-|-7-7-7-7-7-7-7-7-|-8-8-8-8-7-7-7-7-|-5-5-5-5-5-5--|
 |-10-10-10-10-10-10-10-10-|-8-8-8-8-8-8-8-8-|-8-8-8-8-8-8-8-8-|-6-6-6-6-6-6--|
 |-------------------------|-----------------|-----------------|--------------|
 |-------------------------|-----------------|-----------------|--------------|
 |-------------------------|-----------------|-----------------|--------------|
 |-------------------------|-----------------|-----------------|--------------|

[4] Q[4] Q Q Q [3] Q[4] Q E E [4] Q[4] Q Q Q [3] Q[4] Q E E
 
 |-0---0---0---0---|-------------|-0---0---0---0---|-------------|
 |-1---1---0---0---|-1---1---3-1-|-1---1---0---0---|-1---1---3-1-|
 |-0---0---0---0---|-2---2---2-2-|-0---0---0---0---|-2---2---2-2-|
 |-2---2---2---2---|-3---3---3-3-|-2---2---2---2---|-3---3---3-3-|
 |-3---3---2---2---|-3---3-------|-3---3---2---2---|-3---3-------|
 |-----------------|-------------|-----------------|-------------|

|
| e e e e e e e e e e e e e e e e e e e e e e e e e e e e
 
 |-8-8-8-8-7-7-7-7-|-5-5-5-5-5-5-|-8-8-8-8-7-7-7-7-|-5-5-5-5-5-5-|
 |-8-8-8-8-8-8-8-8-|-6-6-6-6-6-6-|-8-8-8-8-8-8-8-8-|-6-6-6-6-6-6-|
 |-----------------|-------------|-----------------|-------------|
 |-----------------|-------------|-----------------|-------------|
 |-----------------|-------------|-----------------|-------------|
 |-----------------|-------------|-----------------|-------------|

[4] Q[4] Q Q Q [3] Q[4] Q E E [4] Q[4] Q Q Q [3] Q[4] Q E E
 
 |-0---0---0---0---|-------------|-0---0---0---0---|-------------|
 |-1---1---0---0---|-1---1---3-1-|-1---1---0---0---|-1---1---3-1-|
 |-0---0---0---0---|-2---2---2-2-|-0---0---0---0---|-2---2---2-2-|
 |-2---2---2---2---|-3---3---3-3-|-2---2---2---2---|-3---3---3-3-|
 |-3---3---2---2---|-3---3-------|-3---3---2---2---|-3---3-------|
 |-----------------|-------------|-----------------|-------------|

|
| e e e e e e e e e e e e e e e e e e e e e e e e e e e e
 
 |-8-8-8-8-7-7-7-7-|-5-5-5-5-5-5-|-8-8-8-8-7-7-7-7-|-5-5-5-5-5-5-|
 |-8-8-8-8-8-8-8-8-|-6-6-6-6-6-6-|-8-8-8-8-8-8-8-8-|-6-6-6-6-6-6-|
 |-----------------|-------------|-----------------|-------------|
 |-----------------|-------------|-----------------|-------------|
 |-----------------|-------------|-----------------|-------------|
 |-----------------|-------------|-----------------|-------------|

[4] Q[4] Q Q Q [3] Q[4] Q E E [4] Q[4] Q Q Q [3] Q[4] Q E E
 
 |-0---0---0---0---|-------------|-0---0---0---0---|-------------|
 |-1---1---0---0---|-1---1---3-1-|-1---1---0---0---|-1---1---3-1-|
 |-0---0---0---0---|-2---2---2-2-|-0---0---0---0---|-2---2---2-2-|
 |-2---2---2---2---|-3---3---3-3-|-2---2---2---2---|-3---3---3-3-|
 |-3---3---2---2---|-3---3-------|-3---3---2---2---|-3---3-------|
 |-----------------|-------------|-----------------|-------------|

|
| e e e e e e e e e e e e e e e e e e e e e e e e e e e e
 
 |-8-8-8-8-7-7-7-7-|-5-5-5-5-5-5-|-8-8-8-8-7-7-7-7-|-5-5-5-5-5-5-|
 |-8-8-8-8-8-8-8-8-|-6-6-6-6-6-6-|-8-8-8-8-8-8-8-8-|-6-6-6-6-6-6-|
 |-----------------|-------------|-----------------|-------------|
 |-----------------|-------------|-----------------|-------------|
 |-----------------|-------------|-----------------|-------------|
 |-----------------|-------------|-----------------|-------------|

[4] Q[4] Q Q Q W W
 
 |-0---0---0---0---|----------|------|
 |-1---1---0---0---|-1--------|-3----|
 |-0---0---0---0---|-2--------|-4----|
 |-2---2---2---2---|-3--------|-5----|
 |-3---3---2---2---|-3--------|-5----|
 |-----------------|-1--------|-3----|

|
| e e e e e e e e W W
 
 |-8-8-8-8-7-7-7-7-|-5--------|-7----|
 |-8-8-8-8-8-8-8-8-|-6--------|-8----|
 |-----------------|----------|------|
 |-----------------|----------|------|
 |-----------------|----------|------|
 |-----------------|----------|------|

[E] [E] [E] [E] [E] [E] [E] [E] [E] [E] [E] [E] [E] [E] [E] [E] [E] [E] [E] [E] [E] [E] [E] [E] [E] [E] [E] [E] [E] [E] [E] [E]  
 
 |-----5-----------|-----------------|-----5-----------|-----------------|
 |-----------5-----|---8---------5---|-----------5-----|---8---------5---|
 |-5-------7-----5-|-------5-7-------|-5-------7-----5-|-------5-7-------|
 |-----------------|-----------------|-----------------|-----------------|
 |-----------------|-----------------|-----------------|-----------------|
 |-----------------|-----------------|-----------------|-----------------|

[E] [E] [E] [E] [E] [E] [E] [E] [E] [E] [E] [E] [E] [E] [E] [E] [E] [E] [E] [E] [E] [E] [E] [E] [E] [E] [E] [E] [E] [E] [E] [E]  
 
 |-----5-----------|-----------------|-----5-----------|-----------------|
 |-----------5-----|---8---------5---|-----------5-----|---8---------5---|
 |-5-------7-----5-|-------5-7-------|-5-------7-----5-|-------5-7-------|
 |-----------------|-----------------|-----------------|-----------------|
 |-----------------|-----------------|-----------------|-----------------|
 |-----------------|-----------------|-----------------|-----------------|

Q q Q q Q q Q q
 
 |-----------------------|-----------------------|
 |-----------------------|-----------------------|
 |--------9-----------9--|--------9-----------9--|
 |-----------------------|-----------------------|
 |-----------------------|-----------------------|
 |-----------------------|-----------------------|

|
| E E E E Q Q E E E E Q Q
 
 |-----------------------|-----------------------|
 |-----------------------|-----------------------|
 |-----------------------|-----------------------|
 |-----------2--2-----0--|-----------2--2-----0--|
 |--0--3-----------------|--0--3-----------------|
 |-----------------------|-----------------------|

|
| e e e e e e Q e e e e e e Q
 
 |-12-12-12-12-12-15-15--|-12-12-12-12-12-15-15--|
 |-13-13-13-13-13-13-----|-13-13-13-13-13-13-----|
 |-----------------------|-----------------------|
 |-----------------------|-----------------------|
 |-----------------------|-----------------------|
 |-----------------------|-----------------------|

Q q q Q H E q E
 
 |-----------------|---------------|
 |------8--10--8---|---------------|
 |------9---9--9---|-------9-7---9-|
 |-----------------|------10-9--10-|
 |-----------------|---------------|
 |-----------------|---------------|

|
| E H. E W
 
 |-----------------|---------------|
 |-----------------|---------------|
 |-0---------------|---------------|
 |-----------------|---------------|
 |-----------------|---------------|
 |-----------------|---------------|

|
| W W
 <br /

Important: The song above is NOT stored on the Chordie server. The original song is hosted at www.indieguitartabs.com. Chordie works as a search engine and provides on-the-fly formatting. Chordie does not index songs against artists'/composers' will. To remove this song please click here.

Text color:
Chord color:
Chord grids: 
Font size:    
Page size: 

E
Rate #3 of 3 versions

Login - add to songbook

SHARE PAGE  




You need to log in to post comments