Guitar Tabs, Chords and Lyrics
Major upgrade!! After one year development the new version of Chordie is now online! Please give feedback.


I Tried to Leave You  Leonard Cohen

Intro
[E] [Bm] [E] [Bm]  
[E]I tried to[Bm] leave you,[E] I don't de[Bm]ny
[E]I closed the b[Bm]ook on us, at l[D]east a hundred t[A]imes
I'd w[C]ake up every m[G]orning by your s[B]ide
The years go by, you lose your pride
The baby's crying, so you do not go outside
And all your work it's right before your eyes
Goodnight, my darling, I hope you're satisfied
The bed is kind of narrow, but my arms are open wide
And here's a man still working for your smile
Verse:
[E] [Bm]  
 
 E:---------------------------------------------------:
 B:--------0-----0-----0-----3------------------------:
 G:--------0h1---0h1---0h1---4------------------------:
 A:------2-----2-----2-----0-4---------------4--------:
 D:--------------------------2------------------------:
 E:--0-----------------------------------------2------:

[E] [Bm]  
 
 E:---------------------------------------------------:
 B:--------0-----0-----0-----3------------------------:
 G:--------0h1---0h1---0h1---4------------------------:
 A:------2-----2-----2-----0-4---------------4--------:
 D:--------------------------2------------------------:
 E:--0-----------------------------------------2------:

[E] [Bm]  
 
 E:---------------------------------------------------:
 B:--------0-----0-----0-----3-----3-----3-----3------:
 G:--------0h1---0h1---0h1---4-----4-----4-----4------:
 A:------2-----2-----2-----0-4-----4-----4-----4------:
 D:--------------------------2-----2-----2-----2------:
 E:--0------------------------------------------------:

[D] [A]  
 
 E:--2-----2-----2-----2-----0-----0-----0-----0------:
 B:--3-----3-----3-----3-----2-----2-----2-----2------:
 G:--2-----2-----2-----2-----2-----2-----2-----2------:
 D:--0-----0-----0-----0------------------------------:
 A:--------------------------0-----0-----0-----0------:
 E:---------------------------------------------------:

[C] [G]  
 
 E:--0-----0-----0-----0-----3-----3-----3-----3------:
 B:--1-----1-----1-----1-----3-----3-----3-----3------:
 G:--0-----0-----0-----0-----4-----4-----4-----4------:
 D:---------------------------------------------------:
 A:--3-----3-----3-----3------------------------------:
 E:--------------------------3-----3-----3-----3------:

[B]  
 
 E:--2------------------------------------------------:
 B:--4------------------------------------------------:
 G:--4-----------------------4-----2-----0------------:
 D:--------------------------------------------4---0--:
 A:--2------------------------------------------------:
 E:---------------------------------------------------:


Important: The song above is NOT stored on the Chordie server. The original song is hosted at www.maartenmassa.be. Chordie works as a search engine and provides on-the-fly formatting. Chordie does not index songs against artists'/composers' will. To remove this song please click here.

Text color:
Chord color:
Chord grids: 
Font size:    
Page size: 

A B Bm C D E G
Rate #1 of 1 versions

Login - add to songbook

SHARE PAGE  




You need to log in to post comments