Guitar Tabs, Chords and Lyrics
Major upgrade!! After one year development the new version of Chordie is now online! Please give feedback.


Who by Fire  Leonard Cohen

Intro
[Am/E] [Am/E] [Am/F] [Am/F] 
[E] [E] [E] [E]  
And w[Am]ho b[G]y f[Am]ire
W[Am]ho b[G]y w[Am]ater
Wh[C]o i[G]n the s[C]unshine
Wh[C]o i[G]n the n[C]ight time
W[Am]ho b[G]y h[Am]igh ordeal
W[Am]ho b[G]y c[Am]ommon trial
Wh[C]o in your m[G]erry merry m[C]onth of may
Wh[C]o by v[G]ery sl[C]ow decay
And wh[Am/E]o shall I s[Am/F]ay is c[E]alling?
And who in her lonely slip
Who by barbiturate
Who in these realms of love
Who by something blunt
And who by avalanche
Who by powder
Who for his greed
Who for his hunger
And who shall I say is calling?
And who by brave assent
Who by accident
Who in solitude
Who in this mirror
Who by his lady's command
Who by his own hand
Who in mortal chains
Who in power
And who shall I say is calling?
[Am] [G] [Am] [Am] [Am]  
[Am] [G] [Am] [Am] [Am]  
[Am] [G] [Am] [Am] [Am]  
Intro
[Am/E] [Am/F] 
 
 E:-------------------------------------------------------------------:
 B:--1-------------------------------1--------------------------------:
 G:------2-------2-------2-------2------2--------2-------2-------2----:
 D:----2---2---2---2---2---2---2---2---2-2-2---2---2---2---2---2---2--:
 A:-------------------------------------------------------------------:
 E:--0-------0-------0-------0-------1-------1-------1-------1--------:

[E]  
 
 E:-------------------------------------------------------------------:
 B:-------------------------------------------------------------------:
 G:------1---1---1---1---1---1---1---1---1---1---1---1---1---1---1----:
 D:----2---2---2---2---2---2---2---2---2---2---2---2---2---2---2---0--:
 A:-------------------------------------------------------------------:
 E:--0----------------------------------------------------------------:

Verse:
[Am] [G] [Am] [G] [Am] 
 
 E:-------------------------------------------------------------------:
 B:--1-------0-------1---------------1-------0-------1----------------:
 G:------2-------0-------2-------2-------2-------0-------2-------2----:
 D:----2---2---0---0---2---2---2---2---2---2---0---0---2---2---2---2--:
 A:--0---------------0---------------0---------------0----------------:
 E:----------3---------------0---------------3---------------0--------:

[C] [G] [C] [G] [C] 
 
 E:-------------------------------------------------------------------:
 B:--1-------3-------1---------------1-------3-------1----------------:
 G:------0-------0-------0-------0-------0-------0-------0-------0----:
 D:----2---2---0---0---2---2---2---2---2---2---0---0---2---2---2---2--:
 A:--3---------------3-------3-------3---------------3-------3--------:
 E:----------3-------------------------------3------------------------:

[Am] [G] [Am] [G] [Am] 
 
 E:-------------------------------------------------------------------:
 B:--1-------0-------1---------------1-------0-------1----------------:
 G:------2-------0-------2-------2-------2-------0-------2-------2----:
 D:----2---2---0---0---2---2---2---2---2---2---0---0---2---2---2---2--:
 A:--0---------------0---------------0---------------0----------------:
 E:----------3---------------0---------------3---------------0--------:

[C] [G] [C] [G] [C] 
 
 E:-------------------------------------------------------------------:
 B:--1-------3-------1---------------1-------3-------1----------------:
 G:------0-------0-------0-------0-------0-------0-------0-------0----:
 D:----2---2---0---0---2---2---2---2---2---2---0---0---2---2---2---2--:
 A:--3---------------3-------3-------3---------------3-------3--------:
 E:----------3-------------------------------3------------------------:

[Am/E] [Am/F] 
 
 E:-------------------------------------------------------------------:
 B:--1-------------------------------1--------------------------------:
 G:------2-------2-------2-------2-------2-------2-------2-------2----:
 D:----2---2---2---2---2---2---2---2---2---2---2---2---2---2---2---2--:
 A:-------------------------------------------------------------------:
 E:--0-------0-------0-------0-------1-------1-------1-------1--------:

[E]  
 
 E:-------------------------------------------------------------------:
 B:--0----------------------------------------------------------------:
 G:------1---1---1---1---1---1---1---1---1---1---1---1---1---1---1----:
 D:----2---2---2---2---2---2---2---2---2---2---2---2---2---2---2---2--:
 A:-------------------------------------------------------------------:
 E:--0----------------------------------------------------------------:


Important: The song above is NOT stored on the Chordie server. The original song is hosted at www.maartenmassa.be. Chordie works as a search engine and provides on-the-fly formatting. Chordie does not index songs against artists'/composers' will. To remove this song please click here.

Text color:
Chord color:
Chord grids: 
Font size:    
Page size: 

Am Am/E Am/F C E G
Rate #1 of 7 versions

Jango Player

Login - add to songbook

SHARE PAGE  




You need to log in to post comments