Guitar Tabs, Chords and Lyrics
Server problems seems to be fixed. Chordie has been experiencing problems with songs disappearing. These issues now seems to be fixed, but still verifying the fix. If you find anything strange, please email admin@chordie.com.


Helping Me Get Over You  Travis Tritt

Helping Me Get Over You Travis Twitt and Lari White
Intro
 
 -3--5--6--5--3-----------6--5--3--------3--5--6--5--3-------
 -----------------6--6-------------6--5-----------------5--6-
 ------------------------------------------------------------
 ------------------------------------------------------------
 ------------------------------------------------------------
 ------------------------------------------------------------
 ----------------------
 --3-4-3-4-3-4---------
 ----------------5-----
 ----------------------
 ----------------------
 ----------------------

[F]You ask who's laying in my [Bb]bed Is it really love we're m[F]aking
Well my heart's hanging by a th[Bb]read
She's the only reason it ain't br[C]eaking
Do you ever cross my m[Bb]ind? [C] Darling, fact is you still [F]do
That's the reason she's is [Gm]here Wiping your old memory cl[C]ear
She's helping me get over y[F]ou
CHORUS:
[F]Helping me get over [Bb]you One kiss at a ti[F]me
Cause all the pain that we've been th[G]rough
Still weighs so heavy on my m[C]ind
Getting pass the love we l[Bb]ost [C] That's a lonely bridge to c[Dm]ross
so I did what I had to [Gm]do I had to find somebody n[C]ew
who's helping me get over yo[F]u
 
 ----------8--10--11--10--8----------11--10--8----------
 -4--3--1--------------------11--11-------------11--10--
 -------------------------------------------------------
 -------------------------------------------------------
 -------------------------------------------------------
 -------------------------------------------------------
 --8--10--11--10--8-----------------------------
 --------------------10--11---------------------
 -----------------------------7-8--7-8--7-8-----
 --------------------------------------------10--
 -----------------------------------------------
 -----------------------------------------------

[Bb]I know you've never ask his n[Eb]ame
But in your heart I know you w[Bb]onder
I'm not much good at playing g[Eb]ames
I'm just trying to keep from going un[F]der
There's no forever in his e[Eb]yes
It's not the l[Dm]ove that we once k[Bb]new
Oh it might be a [Cm]sin but tonight I've got a fr[F]iend
Helping me get over [Bb]you
CHORUS IN DIFFERENT KEY:
H[Bb]elping me get over y[Eb]ou One kiss at a ti[Bb]me
Cause all the pain that we've been thr[C]ough
Still weighs so heavy on my m[F]ind
Getting pass the love we l[Eb]ost [F] That's a lonely bridge to [Gm]cross
so I did what I had to [Cm]do I had to find somebody n[F]ew
who's helping me get over y[Bb]ou
Ending:
[Bb]I did the best that I could [Eb]do
I had to find somebody n[F]ew
who's helping me get over y[Bb]ou

Important: The song above is NOT stored on the Chordie server. The original song is hosted at www.tabcountry.com. Chordie works as a search engine and provides on-the-fly formatting. Chordie does not index songs against artists'/composers' will. To remove this song please click here.

Text color:
Chord color:
Chord grids: 
Font size:    
Page size: 

Bb C Cm Dm Eb F G Gm
Rate #1 of 2 versions

Login - add to songbook

SHARE PAGE  



You need to log in to post comments