Guitar Tabs, Chords and Lyrics
Major upgrade!! After one year development the new version of Chordie is now online! Please give feedback.


Everytime I Cry  Terri Clark

Song: "Everytime I Cry"
Writers: Bob Regan & Karen Staley
====CAPO FRET 1====
Intro Tab:
 
 e---------------------|-------------------| |--------
 B---------------------|-------------------| |--------
 G---------------------|-------------------| Repeat 1x |--------
 D------0-2-4-4-2-0----|-----0-2-4-4-2-0-2-| |--------
 A--0-2-------------0--|-0-2---------------| |--2/4---
 E---------------------|-------------------| |--------

Verse 1:
[A]You call and w[Em]ake me up the [G]way you always [D]do
[A]You say you miss me [Em]and you're sorry [G]deja [D]vu
[A]You push the [Em]button in the [G]heart you know so [D]well
[A]the wall starts [Em]comin' down and [G]I remind my[D]self
CHORUS:
Everytime I [G]think you might have [D]changed
I put aside the [G]anger and the b[D]lame
Make myself [G]believe that there's a [D]way to work it [A]out
Everytime you [G]say lets try [D]again, begging me to [G]let you back [D]in
Everytime I [Em]do, [F#m]everytime you [G]lie, [A]everytime I [D]cry
Verse 2:
[A]If only [Em]promises could [G]just erase the [D]past
[A]I could open [Em]up my heart [G]enough to take you [D]back
[A]But we've been [Em]down this road [G]time and time [D]again
[A]I've learned the [Em]hard way how the [G]story always [D]ends
Repeat Chorus
Solo
Repeat Chorus
Everytime I [Em]do, [F#m]everytime you [G]lie, [A]everytime I [D]cry
Outro Tab:
 
 e---------------------|-------------------| |------------
 B---------------------|-------------------| |------------
 G---------------------|-------------------| Repeat 1x |------------
 D------0-2-4-4-2-0----|-----0-2-4-4-2-0-2-| |-4-2-0---0--
 A--0-2-------------0--|-0-2---------------| |-------2----
 E---------------------|-------------------| |------------

--Katie McCartney

Important: The song above is NOT stored on the Chordie server. The original song is hosted at www.tabcountry.com. Chordie works as a search engine and provides on-the-fly formatting. Chordie does not index songs against artists'/composers' will. To remove this song please click here.

Text color:
Chord color:
Chord grids: 
Font size:    
Page size: 

A D Em F#m G
Rate #1 of 6 versions

Login - add to songbook

SHARE PAGE  



You need to log in to post comments