Guitar Tabs, Chords and Lyrics
Major upgrade!! After one year development the new version of Chordie is now online! Please give feedback.


Ireland  Garth Brooks

Album - Fresh Horses
By - Stephanie Davis, Jenny Yates, and Garth Brooks
Verse 1
N.C. Implemented Chords Are In ()'s
[(A)]They say mother earth is breathing
With each wave that finds the shore
Her soul rises in the evening
For to open twilights door
Her eyes[(F#m)] are the stars[(E)] in h[(A)]eaven
Watching o'er us all the[(D)] while
And her heart it is in[(A)] Ireland[(D)]
Deep within the Emerald[(A)] Isle
Enter Guitars
[A]  
 
 |---------------------|---------------------|------------------------
 |---------------------|---------------------|------------------------
 |---------------2-2---|---------------2-2---|--------------2-2-------
 |----2-----2-2-2---2-2|----2-----2-2-2---2-2|---2-----2-2-2---2-2----
 |-0-----0-------------|0------0-------------|0-----0-----------------
 |---------------------|---------------------|------------------------

Palm Mute
Verse 2
We are fourty against hundreds
In someone elses bloody war
We know not why we're fighting
Or what we're dying for,
They will [F#m]storm us in [G#]the mor[A]ning, when the sunlight turns[D] the sky
 
 |--------------------------------------------------------------------
 |--------------------------------------------------------------------
 |--------------------------------------------------------------------
 |--------------------------------------------------------------------
 |----------------------------0---------------------------------------
 |---------2-----------4----------------------------------------------

Death is waiting for its [A]dance now[E]
Fate has sentenced us to[A] die
CHORUS
[F#m]Ireland [D]I am coming [A]home
I can [D]see your rolling field[A]s of green
And [F#m]fences made of sto[E]ne
I am [F#m]reaching [A]out, won't you [D]take my [A]hand?
I'm coming [F#m]home [A]I-[E]re-land[A]
 
 |-----------------------------0--------------------------------------
 |-3------------------------------------------------------------------
 |--------0--2--0--------------2--------------------------------------
 |-----4----------4---2-----------------------------------------------
 |------------------------0-------------------------------------------
 |--------------------------------------------------------------------

Verse 3 (Same Chords As Above Verse)
Oh, the Captian he lays bleeding
I can hear him calling me
These are your men for the leading
Show them to there destiny
And as I look up all around me
I see the ragged, tired and torn
I tell them to make ready,
'Cause were not waiting for the morn'
CHORUS
Verse 4
Now the fog is deep and [A]heavy, as we forge the dark and fear
 
 |--------------------------------------------------------------------
 |--------------------------------------------------------------------
 |--------------------------------------------------------------------
 |--------------------------------------------------------------------
 |-----------------------------0--------------------------------------
 |-----------------------------5--------------------------------------

We can hear there horses breathing, as in silence we draw near
 
 |--------------------------------------------------------------------
 |--------------------------------------------------------------------
 |--------------------------------------------------------------------
 |--------------------------------------------------------------------
 |------------------------------------0-------------------------------
 |------------------------------------5-------------------------------

And there are no[F#m] words to [G]be spo[A]ken just a look to say goo[D]dbye
 
 |--------------------------------------0-----------------------------
 |--------------------------------------0-----------------------------
 |------------------------------------2-------------------------------
 |----------------------------------2---------------------------------
 |-------------------------------0------------------------------------
 |---------------2-----------4----------------------------------------

I draw a breath and night is [A]broken[E]
 
 |--------------------------------------------------------------------
 |---3----------3-----------------------------------------------------
 |------2-------2-----------------------------------------------------
 |----------0---0-----------------------------------------------------
 |-----------------------------------------------------0--2--4--------
 |--------------------------------------------------------------0-----

As I scream our battle[A] cry
CHORUS
...against hundreds
 
 |-----------------------------0------------------------0-------------
 |-3------------------------------------------------------------------
 |--------0--2--0--------------2---------------------2----------------
 |-----4----------4---2-----------------------------------------------
 |------------------------0-------------------------------------------
 |--------------------------------------------------------------------
 |--------------------------------------------------------------------
 |--------------------------------------------------------------------
 |-0------------------------------2-----------------------------------
 |-----4--2--0--2-----2h4---2-----------------0--(0)h2----------------
 |------------------------------------------0-------------------------
 |---------------------------------------3----------------------------
 |------------------------------0-------------------------------------
 |----------------------3---2-----------------------------------------
 |------------------------------2-------------------------------------
 |-------0---4-----2--------------------------------------------------
 |----0---------------------------------------------------------------
 |-3------------------------------------------------------------------

*****Notes*****
-During the chorus, all chords are picked like the first guitar at
the begining of verse 2.
[A] [D] [E]  
 
 |---------------------|---------------------|------------------------
 |---------------------|------------3-3------|------------------------
 |---------------2-2---|--2----2-2-2----2-2--|------------------------
 |----2-----2-2-2---2-2|0---0----------------|------------2-2---------
 |-0-----0-------------|---------------------|--2----2-2-2----2-2-----
 |---------------------|---------------------|0---0-------------------


Important: The song above is NOT stored on the Chordie server. The original song is hosted at www.tabcountry.com. Chordie works as a search engine and provides on-the-fly formatting. Chordie does not index songs against artists'/composers' will. To remove this song please click here.

Text color:
Chord color:
Chord grids: 
Font size:    
Page size: 

A D E F#m G G#
Rate #2 of 9 versions

Jango Player

Login - add to songbook

SHARE PAGE  




You need to log in to post comments