Guitar Tabs, Chords and Lyrics
Server problems seems to be fixed. Chordie has been experiencing problems with songs disappearing. These issues now seems to be fixed, but still verifying the fix. If you find anything strange, please email admin@chordie.com.


Honky Tonk Man  Dwight Yoakam

Honky-tonk man
Dwight Yoakam
J. Horton, T. Franks, H. Hausey
[D]I'm living fast and [A7]dangerously - but I've got plenty [D]of company.
[D]When the moon comes up and the [A7]sun goes down
[G]That's when I want to see the [D]lights of town
D |D G| D |G| D D7|
'Cause I'm a Honky-Tonk Man ---- and I can't seem to stop,
D7 G |D A7|D A7
[D]I love to give the girls a whirl to the music of the old juke box
[D]But when my [A7]money's all gone I'm on the telephone, callin':
D |G A7|
'Hey, hey, mama, can your daddy come home?'
D |G D|
Repeat, ending: 'Hey, hey, mama, can your daddy come home?'
Title: honky tonk man
Artist: dwight yoakam
Writer: j. horton-t. franks-h. hausey
Album: guitars cadillacs and the import this is dwight yoakam
here is my addition to what is already in the archives..the above is from
the archives, and below is my addition...
opening on acustic:
 
 ------------------------------------------------------------
 ------------------------------------------------------------ for this

part
 
 ------------------------------------------------------------ / means bend
 --------------------------------------2-2-0-0--------------- 1/2 step.
 --0-2-0----------0-2-0----------2-4-2---------2-4-2---2-----
 4-------4-2--2-4-------4-2--2-4---------------------3/-3/-0-

first fill on electric:
 
 -------------------
 ------------------- most of the time this fill will be used
 ------------------- i will notate the other fills with
 -----------2------- the line they go along with...
 -------2-4---------
 -0-3/4-------3/-0--
 -------------------- -3/-3/---3/-3/--
 and i -------3------------ and i -2/-2/---2/-2/-- /=bend
 cant -0-2/4---4/2-0------ cant seem ---------------- 1/2
 seem to ---------------2-0--trill to stop ---------------- step
 stop -------------------- (2nd time)----------------
 --------------------

here is the solo on acustic:
 
 -------------------------------------------------------
 -------------------------------------------------------
 -------------------------------------------------------
 ------0---2--------------2---2---2-------------0---2---
 ----4---4------------2-4---4---4-------------4---4-----
 0-0---------0--0-3/4---------------------0-0-----------
 -----------------------------------------------------------------------
 -----------------------------------------------------------------------
 -----------------------------------------------------------------------
 -----------2---2-2-----2-4-2---2-2-----------------------------2-2-0---
 -------2-4---4-----3-4-------4-----4-2---0-2-0-----------2-4-2---------
 -0-3/4---------------------------------4-------4-2---2-4---------------
 -----------------------
 ----------------------- the reat of the song consists of the same
 ----------------------- fills notated above....pete anderson rules!!!
 -----------------------
 --2-4-2----2-----------
 --------3/---3/-0------


Important: The song above is NOT stored on the Chordie server. The original song is hosted at www.tabcountry.com. Chordie works as a search engine and provides on-the-fly formatting. Chordie does not index songs against artists'/composers' will. To remove this song please click here.

Text color:
Chord color:
Chord grids: 
Font size:    
Page size: 

A7 D G
Rate #1 of 9 versions

Login - add to songbook

SHARE PAGE  



You need to log in to post comments