Guitar Tabs, Chords and Lyrics
Major upgrade!! After one year development the new version of Chordie is now online! Please give feedback.


All Night Long  Montgomery Gentry

by Montgomery Gentry
tabbed by Scott Duvall
Intro Guitar piece
vibrato=^ slide=\ pulloff=>
 
 ------------------------------------------------------------------------------
 ------------------------------------------------------------------------------
 ---10^-10>9---9-----------9\12--10^-10-9---9---------9\12--10^-10>9--9--------
 -----------12--12-9----9--9\12-----------12--12-9--9-9\12----------12-12-9--9-
 --------------------12---------------------------12-----------------------12--
 ------------------------------------------------------------------------------
 ----------------------------------------------------------------------------
 ----------------------------------------------------------------------------
 ---10>9---9----------10-11-12----10>9---9----------10-11-12-----------------
 --------12--12-9---9-10-11-12---------12--12-9---8-10-11-12-----------------
 ----------------12----------------------------12----------------------------
 ----------------------------------------------------------------------------

bend half step=b
 
 ------------------------------------------------------------------------------
 ------------------------------------------------------------------------------
 ---10>9---9----------10-11-12----10>9---9-------------------------------------
 --------12--12-9---9-10-11-12---------12--12-9----------8----8--10b-10b-8-----
 ----------------12----------------------------12--10-10---10-------------8-10-
 ------------------------------------------------------------------------------

[G7]Well the party started early just a quarter till 3 just a few good friends
Charlie, Troy, and me
[C7]It just got started when somebody asked,
[G7]How long ya think this party will last?
[C7]Said all night long
All night long
[G7]said All night long
all night long
[D7]Well be rockin well [C7]be rollin gonna boogey wo[G7]ogey all night long
Verse 2
Well the next door neighbors started raisin a fuss, said you went and had a
party and ya didn't call us
I said put on your dancin shoes and come along, well be here till the cows
come home and thats all night long
All night long
said All night long
all night long
Well be rockin well be rollin gonna boogey woogey all night long
awww guitar
Verse 3
well there jumpin through windows sneakin down the halls
dancin on the ceilin dancin on the wall
the last thing I remember for the lights went out
i just up on the table and I started to shout
well be all night long
All night long
said All night long
all night long
Well be rockin well be rollin gonna boogey woogey all night long
fiddle....
guitar....
back to intro piece.....
I said all night long
all night long.......
key change
[D7] [A7]  
[D7] [A7]  
[E7] [D7] [A7]  
By the way, this is the old traditional country/rock honky tonk so you
gotta jazz it up, just listen to the cd and you'll know what I mean, sorry
I didn't tab out all the leads, but this stuff takes forever,
Scott Duvall
duvallas@bellsouth.net

Important: The song above is NOT stored on the Chordie server. The original song is hosted at www.tabcountry.com. Chordie works as a search engine and provides on-the-fly formatting. Chordie does not index songs against artists'/composers' will. To remove this song please click here.

Text color:
Chord color:
Chord grids: 
Font size:    
Page size: 

A7 C7 D7 E7 G7
Rate #1 of 5 versions

Login - add to songbook

SHARE PAGE  




You need to log in to post comments