Guitar Tabs, Chords and Lyrics
Server problems seems to be fixed. Chordie has been experiencing problems with songs disappearing. These issues now seems to be fixed, but still verifying the fix. If you find anything strange, please email admin@chordie.com.


Where Has My Hometown Gone   Craig Morgan

 
 E------------------------------------------------------------------
 B------------------------------------------------------------------
 G------------------------------------------------------------------
 D------------------------------------------------------------------
 A------------------------------------------------------------------
 E-0h1-1^1--1^1---0h1-1^1--1^1---0h1-1^1--1^1---0h1-1^1--1^1--------

 


 


 [(F)] [(F)] [(F)] [(F)] 


 

 
 E------------------------------------------------------------------
 B------------------------------------------------------------------
 G------------------------------------------------------------------
 D------------------------------------------------------------------
 A---------------------------------------------------3p2p1-0--------
 E-0h1-1^1--1^1---0h1-1^1--1^1---0h1-1^1--1^1---0h1-----------4-3-1-

 


 


 (F) Barely 18, thought I knew it all


 My (Bb) little hometown was way too small


 For the (C) big dreams I'd been dreaming


 I thought the (F) fast lane and bright lights


 Was (C) what I was needin'


 A (F) few long years have come and gone


 I (Bb) finally saved enought to get back home


 To the (C) hills and creeks and timbers


 Where's that (F) slow-paced


 Laid back - (C) place I remember


 


 Tell me where (F) (F) (F) (F) ((strike the chord 4 times))


 Has my home-(F) (F) (F) (F)-town (Bb) gone


 Lord, (C) this looks nothin' like the place where I come (F) from


 What happened to that down home road that I was raised up (Bb) on


 Tell me (C) where has my hometown (F) gone


 


 

 
 E------------------------------------------------------------------
 B------------------------------------------------------------------
 G------------------------------------------------------------------
 D------------------------------------------------------------------
 A---------------------------------------------------3p2p1-0--------
 E-0h1-1^1--1^1---0h1-1^1--1^1---0h1-1^1--1^1---0h1-----------4-3-1-


Important: The song above is NOT stored on the Chordie server. The original song is hosted at www.tabcountry.com. Chordie works as a search engine and provides on-the-fly formatting. Chordie does not index songs against artists'/composers' will. To remove this song please click here.

This song is displayed as text-only. Transposing and tuning is only available for chordpro-songs.
Rate #1 of 3 versions

Login - add to songbook

SHARE PAGE  




You need to log in to post comments